Search tabs and chords

Browse bands and artists

A B C D E F G H I J K L M N O P Q R S T U V W X Y Z #

Log in

[ Register here | Forgot password ]

Guitar Tabs Explorer
Print

Guitar tabs with lyrics:

Up To You tab by Echosmith

  • Tuning: Standard
e|---------------------------------------------------------------------------| Intro
B|------------------6-----------8-----------6-------5------------------------|
G|----------5---7-5-----5---7-5-----5---7-5---5-8p6---6----------------------|
D|---3H---7---7-------7---7-------7---7--------------------------------------|
A|---------------------------------------------------------------------------|
E|---------------------------------------------------------------------------|

e|---------------------------------------------------------------------------| Intro
B|-------------6-----------8-----------6-------5-----------------------------|
G|-----5---7-5-----5---7-5-----5---7-5---5-8p6---6---------------------------|
D|---7---7-------7---7-------7---7-------------------------------------------|
A|---------------------------------------------------------------------------|
E|---------------------------------------------------------------------------|

e|---------------------------------------------------------------------------| Verse 1
B|---10-8-6-6---8-8-6-8-10---8-8-6-8-10--------------------------------------|
G|-------------------------5------------5\2----------------------------------| Want you to come back to
D|---------------------------------------------------------------------------| me/Oh cause you wanted to,
A|---------------------------------------------------------------------------| not cause you needed to
E|---------------------------------------------------------------------------|

e|---------------------------------------------------------------------------| Verse 1
B|---6-8/10-8-8-6---8-8-6-8/10---8-6-8/10------------------------------------|
G|-----------------------------5----------5----------------------------------| You're all that I need/
D|---------------------------------------------------------------------------| Oh, and I love you, yes I
A|---------------------------------------------------------------------------| love you
E|---------------------------------------------------------------------------|

e|-----8-5-10-10-8-5---------------------------------------------------------| Verse 1
B|---------------------------------------------------------------------------|
G|---5-----------------6-8-8-6-6---------------------------------------------| I wear my heart on my sleeve/
D|---------------------------------7-7-7-------------------------------------| It's just what I do
A|---------------------------------------------------------------------------|
E|---------------------------------------------------------------------------|

e|---------------------------------------------------------------------------| Verse 1
B|-----6-6-8/10-8-6-6---8-8-8-6-8-10-11-10-------8-8-6-6---------------------|
G|---7-------------------------------------7---7-----------------------------| But if there's too much to
D|---------------------------------------------------------------------------| leave, won't hold it against
A|---------------------------------------------------------------------------| you/It's all up to you
E|---------------------------------------------------------------------------|

e|---------------------------------------------------------------------------| Chorus x2
B|-------------6-----------8-----------6-------5-----------------------------|
G|-----5---7-5-----5---7-5-----5---7-5---5-8p6---6---------------------------| It's all up to you/
D|---7---7-------7---7-------7---7-------------------------------------------| It's all up to you
A|---------------------------------------------------------------------------|
E|---------------------------------------------------------------------------|

e|---------------------------------------------------------------------------| Verse 2
B|---10-8-6-6---8-8-6-8-10---8-8-6-8-10--------------------------------------|
G|-------------------------5------------5\2----------------------------------| Want you to run back to me/
D|---------------------------------------------------------------------------| Want you to drop it all,oh
A|---------------------------------------------------------------------------| and I'll take the fall
E|---------------------------------------------------------------------------|

e|---------------------------------------------------------------------------| Verse 2
B|---6-8-10-8---6---8-8-6-8-10---8-8-6-8-10----------------------------------|
G|------------7----------------5------------5--------------------------------| I want you to see/That you
D|---------------------------------------------------------------------------| don't have to fall, don't
A|---------------------------------------------------------------------------| have to lose it all
E|---------------------------------------------------------------------------|

e|---------------------------------------------------------------------------| Verse 2
B|---8-8-8-8-5-8-10-8-5---6-8-8-6-6------------------------------------------|
G|------------------------------------7-7-7----------------------------------| Don't want to force you to
D|---------------------------------------------------------------------------| be with me/I'll tell you the
A|---------------------------------------------------------------------------| truth
E|---------------------------------------------------------------------------|

e|---------------------------------------------------------------------------| Verse 2
B|-----6-6-8/10-8-6-6---8-8-8-6-8-10-11-10-------8-8-6-6---------------------|
G|---7-------------------------------------7---7-----------------------------| But if there's too much to
D|---------------------------------------------------------------------------| leave, won't hold it against
A|---------------------------------------------------------------------------| you/It's all up to you
E|---------------------------------------------------------------------------|

e|---------------------------------------------------------------------------| Chorus x2
B|-------------6-----------8-----------6-------5-----------------------------|
G|-----5---7-5-----5---7-5-----5---7-5---5-8p6---6---------------------------| It's all up to you/
D|---7---7-------7---7-------7---7-------------------------------------------| It's all up to you
A|---------------------------------------------------------------------------|
E|---------------------------------------------------------------------------|

e|-----------------------------------------------------------------------------| Bridge x2
B|-----------------6-6-------10-10-8\6-------------------6-6-------10-10-8\6---|
G|---7H-5H-------5-----5-5-5-------------7H-5H-------5-5-----5-5-5-------------| If you stay give your
D|---------7H-5H-------------------------------7H-5H---------------------------| heart away/If you don't
A|-----------------------------------------------------------------------------| stay won't you come my way
E|-----------------------------------------------------------------------------|

e|---------------------------------------------------------------------------| Chorus x8
B|-------------6-----------8-----------6-------5-----------------------------|
G|-----5---7-5-----5---7-5-----5---7-5---5-8p6---6---------------------------| Won't you come my way (x8)
D|---7---7-------7---7-------7---7-------------------------------------------|
A|---------------------------------------------------------------------------|
E|---------------------------------------------------------------------------|

e|---------------------------------------------------5-----------------------| Final
B|---------------6-------------8-------------6---8p6---6-8p6-----------------|
G|-----5---7p5-5-----5---7p5-5-----5---7p5-5---5-----------------------------|
D|---7---7---------7---7---------7---7---------------------------------------|
A|---------------------------------------------------------------------------|
E|---------------------------------------------------------------------------|

e|---------------------------------------------------5-----------------------| Final
B|---------------6-------------8-------------6---8p6---6---------------------|
G|-----5---7p5-5-----5---7p5-5-----5---7p5-5---5-----------5-----------------|
D|---7---7---------7---7---------7---7-------------------7-------------------|
A|---------------------------------------------------------------------------|
E|---------------------------------------------------------------------------|


************************************

Key:

| /    Slide up
| \    Slide down
| p    Pull off
| H    Hold note
| -    No pause
| ---  Pause

************************************

Comments

Echosmith guitar tabs for Up to you