Guitar Tabs Explorer
Echosmith guitar tabs for Talking dreams

Talking Dreams tab


Be the first to rate

Talking Dreams tab by Echosmith

Guitar tabs with lyrics

Print
-------------------------------------------------------------------------------
                             Talking Dreams- Echosmith
-------------------------------------------------------------------------------
Tabbed by:Mark Donohue
E chord diagramEE-mail:mwdonohue@verizon.net

Tuning:Standard

e|-----------------------------------------------------------------------------------| Intro
B|-----------------------------------------------------------------------------------|
G|-----------------------------------------------------------------------------------|
D|---------------------------------------9---------------------------------------9---|
A|---7-9-11-9-7---------0---7-9-11-9-7-------7-9-11-9-7---------0---7-9-11-9-7-------|
E|--------------9-9-7------------------4----------------9-9-7------------------4-----|



e|---------------------------------------------------------------------------| Chorus
B|---------------------------------------------------------------------------|
G|---11-11-9-11-11---11-11-9-11-11/13---9-11-11-11-11---11-11-11-13-11-9\6---| This is a short race, this is
D|---------------------------------------------------------------------------| a short life/Ooh let's run
A|---------------------------------------------------------------------------| not walk,through this
E|---------------------------------------------------------------------------| beautiful life

e|---------------------------------------------------------------------------| Chorus
B|---------------------------------------------------------------------------|
G|---11-11-9-11-11---11-11-9-11-11/13---11-11-11-11---9-11-11-11-11/13-------| This is a good day,this is
D|---------------------------------------------------------------------------| a good sign/You've got green
A|---------------------------------------------------------------------------| eyes,and I've got sunrise
E|---------------------------------------------------------------------------|

e|---------------------------------------------------------------------------| Bridge
B|-------12-------12-14---9-------12-------12-14---9-------------------------|
G|---8-9------8-9-------------8-9------8-9-----------------------------------| Ooh ooh ooh,ooh ooh ooh ooh
D|---------------------------------------------------------------------------| ooh/Ooh ooh ooh, ooh ooh ooh
A|---------------------------------------------------------------------------| ooh ooh
E|---------------------------------------------------------------------------|

e|---------------------------------------------------------------------------| Verse 1
B|---9-11-11-11-11---9-11-11-11-11/13---11-11-11-11---11-11-11-13-9\6--------|
G|---------------------------------------------------------------------------| We're falling sideways,
D|---------------------------------------------------------------------------| big lights, freeways/Heart
A|---------------------------------------------------------------------------| beats through me,through
E|---------------------------------------------------------------------------| this beautiful life

e|---------------------------------------------------------------------------| Bridge
B|-------12-------12-14---9-------12-------12-14---9-------------------------|
G|---8-9------8-9-------------8-9------8-9-----------------------------------| Ooh ooh ooh,ooh ooh ooh ooh
D|---------------------------------------------------------------------------| ooh/Ooh ooh ooh, ooh ooh ooh
A|---------------------------------------------------------------------------| ooh ooh
E|---------------------------------------------------------------------------|

e|---------------------------------------------------------------------------| Verse 2
B|----------9----------9-10-9-10-9-------------------------------------------|
G|---9-9-11---9-11---9-------------9-6-4-------------------------------------| We're talking dreams baby,
D|---------------------------------------------------------------------------| let's run away to New York
A|---------------------------------------------------------------------------| City
E|---------------------------------------------------------------------------|

e|---------------------------------------------------------------------------| Verse 2
B|----------9---------------9------------------------------------------------|
G|---9-9-11---9-11---9-9-11---9-11-------------------------------------------| We're talking dreams baby,
D|---------------------------------------------------------------------------| we'll cut the strings maybe
A|---------------------------------------------------------------------------|
E|---------------------------------------------------------------------------|

e|---------------------------------------------------------------------------| Verse 2
B|-----10-9-10-9-------10-9-10-9---------------------------------------------|
G|---6-----------6---4-----------6/9-----------------------------------------| Through rose colored lenses,
D|---------------------------------------------------------------------------| try not to forget it
A|---------------------------------------------------------------------------|
E|---------------------------------------------------------------------------|

e|---------------------------------------------------------------------------| Verse 2
B|----------9---------------9------9-10-9-10-9-10-9--------------------------|
G|---9-9-11---9-11---9-9-11---9-11-------------------------------------------| We're talking dreams maybe,
D|---------------------------------------------------------------------------| were talking dreams baby,
A|---------------------------------------------------------------------------| yeah
E|---------------------------------------------------------------------------|

e|---------------------------------------------------------------------------| Bridge Extended
B|---------------------------------------------------------------------------|
G|---------------------------------------------------------------------------|
D|---9-11--------------9-9-11--------------------9-11------------------------|
A|--------11-9-9-7-7----------11-9-9-9-9-9-9-9--------11-9-9-7-7-------------|
E|---------------------------------------------------------------------------|

e|---------------------------------------------------------------------------| Bridge Extended
B|-------------------------------9------------9------------------------------|
G|---------------8-9/11---9-9-11---9-11---9-11-------------------------------| We're talking dreams baby
D|---9-9-11-9-----------------------------------11-9-------------------------|
A|------------11-------------------------------------------------------------|
E|---------------------------------------------------------------------------|

e|---------------------------------------------------------------------------| Bridge Extended
B|--------9-----9------9------9------9-12------------------------------------|
G|---9-11---9-11--9-11---9-11---9-11-----------------------------------------|
D|---------------------------------------------------------------------------|
A|---------------------------------------------------------------------------|
E|---------------------------------------------------------------------------|

e|---------------------------------------------------------------------------| Chorus
B|---------------------------------------------------------------------------|
G|---11-11-9-11-11---11-11-9-11-11/13---9-11-11-11-11---11-11-11-13-11-9\6---| Ooh this is a short race, this
D|---------------------------------------------------------------------------| is a short life/Ooh let's run
A|---------------------------------------------------------------------------| not walk, through this
E|---------------------------------------------------------------------------| beautiful life

e|---------------------------------------------------------------------------| Chorus
B|---------------------------------------------------------------------------|
G|---11-11-9-11-11---11-11-9-11-11/13---11-11-11-11---9-11-11-11-11/13-------| This is a good day,this is
D|---------------------------------------------------------------------------| a good sign/You've got green
A|---------------------------------------------------------------------------| eyes,and I've got sunrise
E|---------------------------------------------------------------------------|

e|---------------------------------------------------------------------------| Bridge
B|-------12-------12-14---9-------12-------12-14---9-------------------------|
G|---8-9------8-9-------------8-9------8-9-----------------------------------| Ooh ooh ooh,ooh ooh ooh ooh
D|---------------------------------------------------------------------------| ooh/Ooh ooh ooh, ooh ooh ooh
A|---------------------------------------------------------------------------| ooh ooh
E|---------------------------------------------------------------------------|

e|---------------------------------------------------------------------------| Bridge
B|-------12-------12-14---9-------12-------12-14---9-------------------------|
G|---8-9------8-9-------------8-9------8-9-----------------------------------| Ooh ooh ooh,ooh ooh ooh ooh
D|---------------------------------------------------------------------------| ooh/Ooh ooh ooh, ooh ooh ooh
A|---------------------------------------------------------------------------| ooh ooh
E|---------------------------------------------------------------------------|


e|---------------------------------------------------------------------------| Final
B|---8/9\8/9\8/9\8/9---7/8\7/8\7/8\7/8---8/9---------------------------------|
G|---------------------------------------------------------------------------|
D|---------------------------------------------------------------------------|
A|---------------------------------------------------------------------------|
E|---------------------------------------------------------------------------|

************************************
Key:

| /   slide up
| \   slide down
| -   No pause
| --- Slight pause

Comment this song and these guitar tabs

Do you have corrections, comments on the guitar tabs, thoughts about the song or a message to the author? Write them below.