Search tabs and chords

Browse bands and artists

A B C D E F G H I J K L M N O P Q R S T U V W X Y Z #

Log in

[ Register here | Forgot password ]

Guitar Tabs Explorer
Print

Bass tabs :

Safest Place bass tab by Echosmith

  • Tuning: Standard
Key: Dm


---------------------------------------------------------------------------------------------
                              Safest Place-Echosmith (Bass Tab)
---------------------------------------------------------------------------------------------

Key: D Minor

Tempo: 130 BPM

Bassist: Noah Sierota
_____________________________________________________________________________________________


Intro: (0:14-0:29)

G|----------------|----------------|----------------|----------------|
D|----------------|----------------|----------------|----------------| x2
A|--------------8-|------------1012|----------------|----------------|
E|10-10-10-10-10--|8--8--8--8------|5--5--5--5--8-5-|6--6--6-8-6-5-6-|
  1 & 2 & 3 & 4 &  1 & 2 & 3 & 4 &  1 & 2 & 3 & 4 &  1 & 2 & 3 & 4 &


Verse 1: (0:29-0:44)

G|----------------|----------------|----------------|----------------|
D|----------------|----------------|----------------|--------8-------|
A|------------8---|------------1012|----------------|----------------|
E|10-10-10-10---10|8--8--8--8------|6--6--6--6--6---|6--6--6---6/8---|
  1 & 2 & 3 & 4 &  1 & 2 & 3 & 4 &  1 & 2 & 3 & 4 &  1 & 2 & 3 & 4 &

G|----------------|----------------|----------------|----------------|
D|----------------|----------------|----------------|--------8-------|
A|--------------8-|------------1012|----------------|----------------|
E|10-10-10-10-10--|8--8--8--8------|6--6--6--6--6---|6--6--6-----6---|
  1 & 2 & 3 & 4 &  1 & 2 & 3 & 4 &  1 & 2 & 3 & 4 &  1 & 2 & 3 & 4 &


Pre-chorus: (0:44-0:59)

G|----------------|----------------|----------------|----------------|
D|----------------|----------------|----------------|----------------|
A|----------------|----------------|----------------|----------------|
E|8---------------|-------/13-----\|6---------------|------------6---|
  1 & 2 & 3 & 4 &  1 & 2 & 3 & 4 &  1 & 2 & 3 & 4 &  1 & 2 & 3 & 4 &

G|----------------|----------------|----------------|----------------|
D|----------------|----------------|----------------|----------------|
A|----------------|----------------|----------------|1313131313131313|
E|8---------------|-------/13------|6-------------6/|----------------|
  1 & 2 & 3 & 4 &  1 & 2 & 3 & 4 &  1 & 2 & 3 & 4 &  1 & 2 & 3 & 4 &


Chorus: (0:59-1:28)

G|----------------|----------------|----------------|----------------|
D|----------------|----------------|----------------|----------------| x4
A|----------------|--------8-8-8-8-|----------------|--------8-8-8-8-|
E|6-6-6-6-6-6-6-6/|10101010--------|6-6-6-6-6-6-6-6/|10101010--------|
  1 & 2 & 3 & 4 &  1 & 2 & 3 & 4 &  1 & 2 & 3 & 4 &  1 & 2 & 3 & 4 &


Bridge: (1:28-1:35)

G|----------------|----------------|----------------|----------------|
D|----------------|----------------|----------------|----------------|
A|--------------8-|------------1012|----------------|----------------|
E|10-10-10-10-10--|8--8--8--8------|5--5--5--5--8-5-|6--6--6-8-6-5-6-|
  1 & 2 & 3 & 4 &  1 & 2 & 3 & 4 &  1 & 2 & 3 & 4 &  1 & 2 & 3 & 4 &


Verse 2: (1:35-1:50)

G|----------------|----------------|----------------|----------------|
D|----------------|----------------|----------------|--------8-------|
A|------------8/--|------------1012|----------------|----------------|
E|10-10-10--------|8--8--8---------|6--6--6---------|6--6--6---6-8---|
  1 & 2 & 3 & 4 &  1 & 2 & 3 & 4 &  1 & 2 & 3 & 4 &  1 & 2 & 3 & 4 &

G|----------------|----------------|----------------|----------------|
D|----------------|----------------|----------------|--------8-------|
A|------------8/--|------------1012|----------------|----------------|
E|10-10-10--------|8--8--8---------|6--6--6---------|6--6--6-----6---|
  1 & 2 & 3 & 4 &  1 & 2 & 3 & 4 &  1 & 2 & 3 & 4 &  1 & 2 & 3 & 4 &

Pre-chorus: (1:50-2:05)

G|----------------|----------------|----------------|----------------|
D|----------------|----------------|----------------|----------------|
A|----------------|----------------|----------------|----------------|
E|8---------------|-------/13-----\|6---------------|------------6---|
  1 & 2 & 3 & 4 &  1 & 2 & 3 & 4 &  1 & 2 & 3 & 4 &  1 & 2 & 3 & 4 &

G|----------------|----------------|----------------|----------------|
D|----------------|----------------|----------------|----------------|
A|----------------|----------------|----------------|1313131313131313|
E|8---------------|-------/13------|6-------------6/|----------------|
  1 & 2 & 3 & 4 &  1 & 2 & 3 & 4 &  1 & 2 & 3 & 4 &  1 & 2 & 3 & 4 &


Chorus: (2:05-2:42)

G|----------------|----------------|----------------|----------------|
D|----------------|----------------|----------------|----------------| x4
A|----------------|--------8-8-8-8-|----------------|--------8-8-8-8-|
E|6-6-6-6-6-6-6-6/|10101010--------|6-6-6-6-6-6-6-6/|10101010--------|
  1 & 2 & 3 & 4 &  1 & 2 & 3 & 4 &  1 & 2 & 3 & 4 &  1 & 2 & 3 & 4 &

G|----------------|----------------|----------------|----------------|
D|----------------|----------------|----------------|----------------|
A|----------------|----------------|----------------|----------------|
E|6-6-6-6-6-6-6-6-|6-6-6-6-6-6-6-6-|6-6-6-6-6-6-6-6-|6-6-6-6-6-6-6-6-|
  1 & 2 & 3 & 4 &  1 & 2 & 3 & 4 &  1 & 2 & 3 & 4 &  1 & 2 & 3 & 4 &


Bridge: (2:42-3:26)

G|----------------|----------------|----------------|----------------|
D|----------------|----------------|----------------|----------------| x3
A|----------------|----------------|----------------|----------------|
E|8---------------|-------/13-----\|6---------------|----------------|
  1 & 2 & 3 & 4 &  1 & 2 & 3 & 4 &  1 & 2 & 3 & 4 &  1 & 2 & 3 & 4 &

G|----------------|----------------|----------------|-----------------|
D|----------------|----------------|----------------|-----------------|
A|----------------|----------------|----------------|-----------------|
E|8---------------|-------/13------|6---------------|----------6/1818\|
  1 & 2 & 3 & 4 &  1 & 2 & 3 & 4 &  1 & 2 & 3 & 4 &  1 & 2 & 3 & 4 &

G|----------------|----------------|----------------|----------------|
D|----------------|----------------|----------------|----------------| x2
A|----------------|--------8-8-8-8-|----------------|--------8-8-8-8-|
E|6-6-6-6-6-6-6-6/|10101010--------|6-6-6-6-6-6-6-6/|10101010--------|
  1 & 2 & 3 & 4 &  1 & 2 & 3 & 4 &  1 & 2 & 3 & 4 &  1 & 2 & 3 & 4 &


Chorus: (3:26-4:03)

G|----------------|----------------|----------------|----------------|
D|----------------|----------------|----------------|----------------| x4
A|----------------|--------8-8-8-8-|----------------|--------8-8-8-8-|
E|6-6-6-6-6-6-6-6/|10101010--------|6-6-6-6-6-6-6-6/|10101010--------|
  1 & 2 & 3 & 4 &  1 & 2 & 3 & 4 &  1 & 2 & 3 & 4 &  1 & 2 & 3 & 4 &

G|----------------|----------------|----------------|----------------|
D|----------------|----------------|----------------|----------------|
A|----------------|----------------|----------------|----------------|
E|6---------------|----------------|----------------|----------------| (hold note)
  1 & 2 & 3 & 4 &  1 & 2 & 3 & 4 &  1 & 2 & 3 & 4 &  1 & 2 & 3 & 4 &


************************************

| /   Slide up
| \   Slide down

************************************

Comments

Echosmith bass tabs for Safest place