Log in

One click and you are in

Login with Facebook Login with Google

Why sign up and log in

Guitar Tabs Explorer
Donovan tabs for Oh deed i do1

Guitar tabs

#Please forget my precedent post with A chord diagramEb MajorEb tuning I think it's rather this tuning ( A chord diagramBB downed to A chord diagramA augmentedA )

# of course you can play it with a regular tuning
# but it sounds better with the A chord diagramBB downed to A chord diagramA augmentedA
# Bernard.Sage@Laposte.net





A chord diagramE MajorE |-3-----3--------|-3-----3--------|-3-----3--------|-3-----3--------|
A chord diagramA augmentedA |---3-------3----|---3-------3----|---3-------3----|---3-------3----|
A chord diagramG+G |-----0-------0--|-----0-------0--|-----0-------0--|-----0-------0--|
A chord diagramD MajorD |----------------|----------------|----------------|----------------|
A chord diagramA augmentedA |-3-------3------|-3-------3------|-3-------3------|-3-------3------|
A chord diagramE MajorE |----------------|----------------|----------------|----------------|

|-3-----3--------|-3-----3---1----|-1-----0--------|-0-----0--------|
|---3-------3----|---3------------|---3-------3----|---3-------3----|
|-----0-------0--|-----0-------0--|-----3-------3--|-----3-------0--|
|----------------|----------------|----------------|----------------|
|-3-------3------|-3-------3------|-3-------3------|-3-------3------|
|----------------|----------------|----------------|----------------|

|-1-----1--------|-1-----1--------|-1-----0--------|-0-----0--------|---------|
|---3-------3----|---1-------1----|---1-------1----|---1-------1----|---------|
|-----2-------2--|-----1-------1--|-----0-------0--|-----0----------|---------|
|----------------|----------------|----------------|-------------3--|---------|
|-3-------3------|-4-------4------|-3-------3------|-3-------3------|---------|
|----------------|----------------|----------------|----------------|---------|


#End of file.

Other versions of Oh Deed I Do1

Oh deed I doTabs

Almost there ...

Sign in to get your own page with links to favourite songs and more. You are just one click away...

Login with Facebook Login with Google