Search tabs and chords

Search for song, artist or band

Log in

One click and you are in

Login with Facebook Login with Google

Why sign up and log in

Guitar Tabs Explorer
Celine Dion guitar chords for My heart will go on ukulele

My Heart Will Go On Ukulele chords by Celine Dion

Celine Dion guitar chords for My heart will go on ukulele

Guitar chords

Tuning: G chord diagramGG C chord diagramCC E chord diagramEE A chord diagramAA (G chord diagramGG C chord diagramCC E chord diagramEE A chord diagramAA)

Difficulty: Novice

Intro:

A|----0--0--2----|
E|-3-------------|
C| chord diagramC|C|---------------|
G|---------------|
A|-0-----0--5----|
E|----3----------|
C| chord diagramC|C|---------------|
G|---------------|


A|-3--2----------|
E|-------3--0----|
C| chord diagramC|C|---------------|
G|---------------|


A|---0--2--------|
E|-3-------------|
C| chord diagramC|C|---------------|
G|---------------|


A|-3-2-0---0-5---|
E|-------3-------|
C| chord diagramC|C|---------------|
G|---------------|

A|-2-5--7--5--0--|
E|---------------|
C| chord diagramC|C|---------------|
G|---------------|



Verse 1:

A|----------------|
E|-3--3-3--3--2-3-|
C| chord diagramC|C|----------------|
G|----------------|

Every night in my dreams


A|---------0--2--0-|
E|-3--2-3----------|
C| chord diagramC|C|-----------------|
G|-----------------|

I see you, I feel you


A|----------------------|
E|-3--3-3--3--2-3--3----|
C| chord diagramC|C|--------------------2-|
G|----------------------|

That is how I know you go on


A|----------------|
E|-3--3-3--3--2-3-|
C| chord diagramC|C|----------------|
G|----------------|

Far across the distance


A|---------0--2--0-|
E|-3--2-3----------|
C| chord diagramC|C|-----------------|
G|-----------------|

And spaces between us


A|----------------------|
E|-3--3-3--3--2-3--3----|
C| chord diagramC|C|--------------------2-|
G|----------------------|

You have come to show you go on



Chorus:

A|----0----5--3-2-0-|
E|-3----------------|
C| chord diagramC|C|-------2----------|
G|------------------|

Near, far, wherever you are


A|-2-3-2--0-----------------|
E|----------3--2-3--3--0----|
C| chord diagramC|C|------------------------2-|
G|--------------------------|

I believe that the heart does go on


A|----0----5--3-2-0-|
E|-3----------------|
C| chord diagramC|C|-------2----------|
G|------------------|

Once more you open the door


A|-2-3--2--0--------|
E|------------3-2-3-|
C| chord diagramC|C|------------------|
G|------------------|

And you're here in my heart


A|---------0--2--0----|
E|-3--2-3-----------3-|
C| chord diagramC|C|--------------------|
G|--------------------|

And my heart will go on and on


A|-3-2-0---0-5---|
E|-------3-------|
C| chord diagramC|C|---------------|
G|---------------|


A|-2-5--7--5--0--|
E|---------------|
C| chord diagramC|C|---------------|
G|---------------|



Verse 2:

A|----------------|
E|-3--3-3--3--2-3-|
C| chord diagramC|C|----------------|
G|----------------|

Love can touch us one time


A|---------0--2--0-|
E|-3--2-3----------|
C| chord diagramC|C|-----------------|
G|-----------------|

And last for a lifetime


A|----------------------|
E|-3--3-3--3--2-3--3----|
C| chord diagramC|C|--------------------2-|
G|----------------------|

And never let go until we're gone


A|----------------|
E|-3--3-3--3--2-3-|
C| chord diagramC|C|----------------|
G|----------------|

Love was when I loved you


A|---------0--2--0-|
E|-3--2-3----------|
C| chord diagramC|C|-----------------|
G|-----------------|

One true time I hold to


A|--------------------------|
E|-3--3-3--3--2-3--3--0-----|
C| chord diagramC|C|------------------------2-|
G|--------------------------|

In my life we'll always go on



Chorus:

A|----0----5--3-2-0-|
E|-3----------------|
C| chord diagramC|C|-------2----------|
G|------------------|

Near, far, wherever you are


A|-2-3-2--0-----------------|
E|----------3--2-3--3--0----|
C| chord diagramC|C|------------------------2-|
G|--------------------------|

I believe that the heart does go on


A|----0----5--3-2-0-|
E|-3----------------|
C| chord diagramC|C|-------2----------|
G|------------------|

Once more you open the door


A|-2-3--2--0--------|
E|------------3-2-3-|
C| chord diagramC|C|------------------|
G|------------------|

And you're here in my heart


A|---------0--2--0----|
E|-3--2-3-----------3-|
C| chord diagramC|C|--------------------|
G|--------------------|

And my heart will go on and on



Interlude:

A|-0---0-5-------|
E|---3-----------|
C| chord diagramC|C|---------------|
G|---------------|


A|-3-2-----------|
E|-----3-0-------|
C| chord diagramC|C|---------------|
G|---------------|


A|---0--0-2------|
E|-3-------------|
C| chord diagramC|C|---------------|
G|---------------|


A|-3-2-0---0-5---|
E|-------3-------|
C| chord diagramC|C|---------------|
G|---------------|


A|-2-5--7--------|
E|---------------|
C| chord diagramC|C|---------------|
G|---------------|


A|-9--10--12-----|
E|---------------|
C| chord diagramC|C|---------------|
G|---------------|



Outro:

A|-2---4----9--7--6-4-|
E|--------2-----------|
C| chord diagramC|C|--------------------|
G|--------------------|

You're here, there's nothing I fear


A|-6--7--6---4--2--1-2---2--------|
E|--------------------------4---2-|
C| chord diagramC|C|--------------------------------|
G|--------------------------------|

And I know that my heart will go on


A|-2---4----9--7--6-4-|
E|--------2-----------|
C| chord diagramC|C|--------------------|
G|--------------------|

We'll stay forever this way


A|-6--7--6---4--2--1-2-|
E|---------------------|
C| chord diagramC|C|---------------------|
G|---------------------|

You are safe in my heart


A|-2--1-2--4--6--4--2-|
E|--------------------|
C| chord diagramC|C|--------------------|
G|--------------------|

And my heart will go on and on

Almost there ...

Sign in to get your own page with links to favourite songs and more. You are just one click away...

Login with Facebook Login with Google