Kings Of The Carnival Creation by Dimmu Borgir

Kings Of The Carnival Creation bass tab by Dimmu Borgir

Bass tabs

Notes:
------
 : slide down to
/ : slide up to
h : hammer on
p : Pull off
tuning : G D A E B

Tab:
----

Verse 1:
--------
                                       2x
--------------------------------------------------------------------------------
--------------------------------------------------------------------------------
--------------------------------------------------------------------------------
4-5-6-5--2--2-2-2----2-2-2--2-2-2---1-2-3-4--5--5-5-5----5-5-5--5-5-5-----------
--------------------------------------------------------------------------------

                                       2x
--------------------------------------------------------------------------------
--------------------------------------------------------------------------------
--------------------------------------------------------------------------------
4-5-6-5--2--2-2-2--2-2-2--2-2-2--2-2-2---1-2-3-4--5--5-5-5--5-5-5--5-5-5--5-5-5-
--------------------------------------------------------------------------------

--------------------------------------------------------------------------------
--------------------------------------------------------------------------------
--------------------------------------------------------------------------------
4-5-6-5-------------------------------------------------------------------------
--------------------------------------------------------------------------------

Verse 2:
--------
--------------------------------------------------------------------------------
--------------------------------------------------------------------------------
-----------------999999999999-77777777-55555555---------------------------------
2222222222222222----------------------------------------------------------------
--------------------------------------------------------------------------------

--------------------------------------------------------------------------------
--------------------------------------------------------------------------------
-----------------111111111111111111111111-99999999-55555555---------------------
5555555555555555----------------------------------------------------------------
--------------------------------------------------------------------------------
(Notes are: -2- , -9- , -7- , -5-, -11-)
(Play very fast)


Verse 1:
--------
                                       2x
--------------------------------------------------------------------------------
--------------------------------------------------------------------------------
--------------------------------------------------------------------------------
2--2-2-2--2-2-2--2-2-2--2-2-2---1-2-3-4--5--5-5-5--5-5-5--5-5-5--5-5-5---4-5-6-5
--------------------------------------------------------------------------------


Verse 2:
--------
--------------------------------------------------------------------------------
--------------------------------------------------------------------------------
-----------------999999999999-77777777-55555555---------------------------------
2222222222222222----------------------------------------------------------------
--------------------------------------------------------------------------------

--------------------------------------------------------------------------------
--------------------------------------------------------------------------------
-----------------111111111111111111111111-99999999-55555555---------------------
5555555555555555----------------------------------------------------------------
--------------------------------------------------------------------------------
(Notes are: -2- , -9- , -7- , -5-, -11-)
(Play very fast)


Chorus:
-------
                                       6x
--------------------------------------------------------------------------------
----3---3-----------------------------------------------------------------------
------------3---3---34---------------------------------------------------------
1-1---1---1---1---1-------------------------------------------------------------
--------------------------------------------------------------------------------

--------------------------------------------------------------------------------
----3---3-----------------------------------------------------------------------
------------3-3-3-34-----------------------------------------------------------
1-1---1---1---------------------------------------------------------------------
--------------------------------------------------------------------------------

--------------------------------------------------------------------------------
----3---3-----------------------------------------------------------------------
------------3---3---34---------------------------------------------------------
1-1---1---1---1---1-------------------------------------------------------------
--------------------------------------------------------------------------------

--------------------------------------------------------------------------------
----3---3-----------------------------------------------------------------------
------------3-3-3-34-----------------------------------------------------------
1-1---1---1---------------------------------------------------------------------
--------------------------------------------------------------------------------

--------------------------------------------------------------------------------
----3---3-----------------------------------------------------------------------
------------3---3---34---------------------------------------------------------
1-1---1---1---1---1-------------------------------------------------------------
--------------------------------------------------------------------------------

--------------------------------------------------------------------------------
----3---3-----------------------------------------------------------------------
------------3-3-3-34-----------------------------------------------------------
1-1---1---1---------------------------------------------------------------------
--------------------------------------------------------------------------------

--------------------------------------------------------------------------------
----3---3-----------------------------------------------------------------------
------------3---3---34---------------------------------------------------------
1-1---1---1---1---1-------------------------------------------------------------
--------------------------------------------------------------------------------

--------------------------------------------------------------------------------
----3---3-----------------------------------------------------------------------
------------3-3-3-34-----------------------------------------------------------
1-1---1---1---------------------------------------------------------------------
--------------------------------------------------------------------------------


Fill :
------
                                       2x
--------------------------------------------------------------------------------
2-4-2-----5-7-5-----7-9-7-----10h12p10------------------------------------------
--------------------------------------------------------------------------------
--------------------------------------------------------------------------------
--------------------------------------------------------------------------------


Riff 1:
-------
                                       4x
--------------------------------------------------------------------------------
--------------------------------------------------------------------------------
2-2-2-2-2-2-2-2-5-5-5-5-5-5-5-5-------------------------------------------------
--------------------------------2-2-2-2-2-2-2-2-5-5-5-5-5-5-5-5-----------------
--------------------------------------------------------------------------------


Verse 1:
--------
                                       2x
--------------------------------------------------------------------------------
--------------------------------------------------------------------------------
--------------------------------------------------------------------------------
4-5-6-5--2--2-2-2----2-2-2--2-2-2---1-2-3-4--5--5-5-5----5-5-5--5-5-5-----------
--------------------------------------------------------------------------------


                                       2x
--------------------------------------------------------------------------------
--------------------------------------------------------------------------------
--------------------------------------------------------------------------------
4-5-6-5--2--2-2-2--2-2-2--2-2-2--2-2-2---1-2-3-4--5--5-5-5--5-5-5--5-5-5--5-5-5-
--------------------------------------------------------------------------------

--------------------------------------------------------------------------------
--------------------------------------------------------------------------------
--------------------------------------------------------------------------------
4-5-6-5-------------------------------------------------------------------------
--------------------------------------------------------------------------------


Verse 2:
--------
--------------------------------------------------------------------------------
--------------------------------------------------------------------------------
-----------------999999999999-77777777-55555555---------------------------------
2222222222222222----------------------------------------------------------------
--------------------------------------------------------------------------------

--------------------------------------------------------------------------------
--------------------------------------------------------------------------------
-----------------111111111111111111111111-99999999-55555555---------------------
5555555555555555----------------------------------------------------------------
--------------------------------------------------------------------------------
(Notes are: -2- , -9- , -7- , -5-, -11-)
(Play very fast)

Interlude:
----------
                                       2x
--------------------------------------------------------------------------------
--------------------------------------------------------------------------------
4-4-4-4-4-4-4-4-7-6-4-4-4-4-4-4-4-4-4-7-6-4-------------------------------------
-------------------------------------------4-4-4-4-4-4-4-4-4-4-4-4-4-4-4-4-7-6-4
--------------------------------------------------------------------------------

--------------------------------------------------------------------------------
--------------------------------------------------------------------------------
--------------------------------------------------------------------------------
2-2-2-2-2-2-2-2-2-4-2-2-2-2-2-2-2-2-2-2-4-2-------------------------------------
-------------------------------------------5-5-5-5-5-5-5-5-5-5-5-5-5-5-5-5-5-7-5

--------------------------------------------------------------------------------
--------------------------------------------------------------------------------
--------------------------------------------------------------------------------
2-2-2-2-2-2-2-2-2-4-2-2-2-2-2-2-2-2-2-2-4-2-------------------------------------
--------------------------------------------5-5-5-5-5-5-5-5-5-5-5-5-5-5-5-5-----

--------------------------------------------------------------------------------
2-1-0---------------------------------------------------------------------------
--------------------------------------------------------------------------------
--------------------------------------------------------------------------------
--------------------------------------------------------------------------------

                                       2x
--------------------------------------------------------------------------------
--------------------------------------------------------------------------------
4----4----4-4--4----7--6--4-----------------------------------------------------
-------------------------------4----4----4-4--4----7--6--4----------------------
--------------------------------------------------------------------------------

--------------------------------------------------------------------------------
--------------------------------------------------------------------------------
--------------------------------------------------------------------------------
2----2----2-2--2----2--4--2-----------------------------------------------------
-------------------------------5----5---5-5-5---5-5-5---5-7-5-------------------

--------------------------------------------------------------------------------
--------------------------------------------------------------------------------
--------------------------------------------------------------------------------
2----2----2-2--2----2--4--2-----------------------------------------------------
-------------------------------5----5----5-5--5----5-7-5------------------------

--------------------------------------------------------------------------------
--------------------------------------------------------------------------------
4----4----4-4--4----7--6--4-----------------------------------------------------
-------------------------------4----4---4-4-4---4-4-4---7-6-4-------------------
--------------------------------------------------------------------------------

--------------------------------------------------------------------------------
--------------------------------------------------------------------------------
4----4----4-4--4----7--6--4-----------------------------------------------------
-------------------------------4----4----4-4--4----7--6--4----------------------
--------------------------------------------------------------------------------

--------------------------------------------------------------------------------
--------------------------------------------------------------------------------
--------------------------------------------------------------------------------
2----2----2-2--2----2--4--2-----------------------------------------------------
-------------------------------5----5---5-5-5---5-5-5---5-7-5-------------------

--------------------------------------------------------------------------------
--------------------------------------------------------------------------------
--------------------------------------------------------------------------------
2----2----2-2--2----2--4--2-----------------------------------------------------
-------------------------------5----5----5-5--5----7--5--3----------------------


Chorus:
-------
                                       2x
--------------------------------------------------------------------------------
----3---3-----------------------------------------------------------------------
------------3---3---34---------------------------------------------------------
1-1---1---1---1---1-------------------------------------------------------------
--------------------------------------------------------------------------------

--------------------------------------------------------------------------------
----3---3-----------------------------------------------------------------------
------------3-3-3-34-----------------------------------------------------------
1-1---1---1---------------------------------------------------------------------
--------------------------------------------------------------------------------

--------------------------------------------------------------------------------
----3---3-----------------------------------------------------------------------
------------3---3---34---------------------------------------------------------
1-1---1---1---1---1-------------------------------------------------------------
--------------------------------------------------------------------------------

--------------------------------------------------------------------------------
----3---3-----------------------------------------------------------------------
------------3-3-3-34-----------------------------------------------------------
1-1---1---1---------------------------------------------------------------------
--------------------------------------------------------------------------------

--------------------------------------------------------------------------------
----3---3-----------------------------------------------------------------------
------------3---3---34---------------------------------------------------------
1-1---1---1---1---1-------------------------------------------------------------
--------------------------------------------------------------------------------

--------------------------------------------------------------------------------
----3---3-----------------------------------------------------------------------
------------3-3-3-34-----------------------------------------------------------
1-1---1---1---------------------------------------------------------------------
--------------------------------------------------------------------------------

--------------------------------------------------------------------------------
----3---3-----------------------------------------------------------------------
------------3---3---34---------------------------------------------------------
1-1---1---1---1---1-------------------------------------------------------------
--------------------------------------------------------------------------------

--------------------------------------------------------------------------------
----3---3-----------------------------------------------------------------------
------------3-3-3-34-----------------------------------------------------------
1-1---1---1---------------------------------------------------------------------
--------------------------------------------------------------------------------


Fill :
------
                                       2x
--------------------------------------------------------------------------------
2-4-2-----5-7-5-----7-9-7-----10h12p10------------------------------------------
--------------------------------------------------------------------------------
--------------------------------------------------------------------------------
--------------------------------------------------------------------------------


Riff 1:
-------
                                       4x
--------------------------------------------------------------------------------
--------------------------------------------------------------------------------
2-2-2-2-2-2-2-2-5-5-5-5-5-5-5-5-------------------------------------------------
--------------------------------2-2-2-2-2-2-2-2-5-5-5-5-5-5-5-5-----------------
--------------------------------------------------------------------------------


Outro:
------

--------------------------------------------------------------------------------
--------------------------------------------------------------------------------
-------------------------55555555-----------------------------------------------
3/0---33333333-55555555--------------------------------------------------------
--------------------------------------------------------------------------------

                                       5x
--------------------------------------------------------------------------------
--------------------------------------------------------------------------------
--------------------------55555555----------------------------------------------
3333333333333333-55555555-------------------------------------------------------
--------------------------------------------------------------------------------


tabbed by satan

Find guitar tabs and chords

A B C D E F G H I J K L M N O P Q R S T U V W X Y Z #