In Deaths Embrace by Dimmu Borgir

In Deaths Embrace tab by Dimmu Borgir

Guitar tabs

Okay...Dimmu Borgir In Deaths Embrace, not all that difficult, but some spots are
I own no rights to the song blah blah..i just tabbed it blah blah...

Tuning- Standard

|-----------------------------------------| play this segment 10x
|-----------------------------------------| play each ending 5x alternating
|-----------------------------------------|
|-------------------5-------------------5-|
|-------------------3-------------------3-|
|-0-0-0-0-0-0-0-0-0---0-0-0-0-0-0-0-0-0---|

End 1:
|-----------------------------------|
|-----------------------------------|
|-----------------------------------|
|--7---------7----------------------|
|--5-5-5-5-5-5-5-5-5-5-7---------9-7|
|----------------------5-5-5-5-5-7-5|

End 2:
|-----------------------------------|
|-----------------------------------|
|-----------------------------------|
|--7---------7----------------------|
|--5-5-5-5-5-5-5-5-5-5-7---------5-4|
|----------------------5-5-5-5-5-3-2|

|------------------------------------------------------------------|
|------------------------------------------------------------------|
|------------------------------------------------------------------|
|----------------------------------3---3---3---3---3---3---3---3---|
|-7---7---7---7---7---7---7---7----3---3---3---3---3---3---3---3---|
|-5-555-555-555-555-555-555-555-55-1-111-111-111-111-111-111-111-11|play 6x
(on 3rd time, slow tempo down on the 1's for the last 4 1-3-3 power cords)

|------------------------------------------------|
|------------------------------------------------|
|------------------------------------------------|
|-3--3-3--3-3-7--7-7--7-7-7--7-7--7---7--7-7--7--|
|-3--3-3--3-3-5--5-5--5-5-7--7-7--7---7--7-7--7--|
|-1--1-1--1-1-5--5-5--5-5-5--5-5--5-0-5--5-5--5-0|
                         } play these 2 bars a
|----------------------------------------------------| total of 8x, alternate
|----------------------------------------------------| between the two every
|----------------------------------------------------| other time
|-3--3-3--3-3-7--7-7--7-7-7--7-7-----7--7-7--7-7-----|
|-3--3-3--3-3-5--5-5--5-5-7--7-7-----7--7-7--7-7-----|
|-1--1-1--1-1-5--5-5--5-5-5--5-5--0--5--5-5--5-5--0--|

Rhythm plays part below starting on 5th time..somewhat timed with cords above. listen
exact timing. Repeat under appropriate cords until end of part.
|-----------|-----------------|
|-----------|-----------------|
|----5-3-2-3|----------2-0-2-3|
|-----------|-----------------|
|-----------|-----------------|
|-----------|-----------------|

then:
|----|
|----|
|----|
|-5~-|
|-5~-|
|-3~-| keyboards.....

|-------|
|-------|
|-------|
|-5--7-3|
|-5--5-3|
|-3--5-1| 6x

|---------------------------------|
|---------------------------------|
|---------------------------------|
|-5-----5-5-----5-7-----7-3-----3-|
|-5-5-5-5-5-5-5-5-5-5-5-5-3-3-3-3-|
|-3-3-3-3-3-3-3-3-5-5-5-5-1-1-1-1-|4x, then a variation....

|--------------------------------|
|--------------------------------|
|--------------------------------|
|-5-----5-5-----5-7-----7-3-----3|
|-5-555-5-5-555-5-5-555-5-3-333-1|
|-3-333-3-3-333-3-5-555-5-1-111-1|4x

Back to..
|------------------------------------------------|
|------------------------------------------------|
|------------------------------------------------|
|-3--3-3--3-3-7--7-7--7-7-7--7-7--7---7--7-7--7--|
|-3--3-3--3-3-5--5-5--5-5-7--7-7--7---7--7-7--7--|
|-1--1-1--1-1-5--5-5--5-5-5--5-5--5-0-5--5-5--5-0|
                         } play these 2 bars a
|----------------------------------------------------| total of 8x, alternate
|----------------------------------------------------| between the two every
|----------------------------------------------------| other time
|-3--3-3--3-3-7--7-7--7-7-7--7-7-----7--7-7--7-7-----|
|-3--3-3--3-3-5--5-5--5-5-7--7-7-----7--7-7--7-7-----|
|-1--1-1--1-1-5--5-5--5-5-5--5-5--0--5--5-5--5-5--0--|


With same rhythm underneath:

|-----------|-----------------|comes in 5th time until end
|-----------|-----------------|
|----5-3-2-3|----------2-0-2-3|
|-----------|-----------------|
|-----------|-----------------|
|-----------|-----------------|

then back to:

|------------------------------------------------------------------|
|------------------------------------------------------------------|
|------------------------------------------------------------------|
|----------------------------------3---3---3---3---3---3---3---3---|
|-7---7---7---7---7---7---7---7----3---3---3---3---3---3---3---3---|
|-5-555-555-555-555-555-555-555-55-1-111-111-111-111-111-111-111-11|play 6x

then:

|-----------------------------------------------|
|-----------------------------------------------|
|-----------------------------------------------|
|2-2-2-2-2-2-2-2-2-2-2-2-2-2-2-2-2-2-2-2-2-2-2-2|
|2-2-2-2-2-2-2-2-2-2-2-2-2-2-2-2-2-2-2-2-2-2-2-2|
|0-0-0-0-0-0-0-0-0-0-0-0-0-0-0-0-0-0-0-0-0-0-0-0|
                         }play these two bars
|-----------------------------------------------| together 4x. It is also
|-----------------------------------------------| the rhythm under the solo
|-----------------------------------------------|
|5-5-5-5-5-5-5-5-5-5-5-5-5-5-5-5-5-5-5-5-5-5-5-5|
|5-5-5-5-5-5-5-5-5-5-5-5-5-5-5-5-5-5-5-5-5-5-5-5|
|3-3-3-3-3-3-3-3-3-3-3-3-3-3-3-3-3-3-3-3-3-3-3-3|

Solo:
|----------------------------------------------------------------------|
|-12--10----------------------------12-------------15--13-12-13-8-10-12|
|--------12-9-7-9--12---------12-14-----------12-14--------------------|
|---------------------12-14-12--------12-14-12-------------------------|
|----------------------------------------------------------------------|
|----------------------------------------------------------------------|

|-------------------------------------------------------|
|-----------------------------------12------------------|
|-14-16-12-14-11-12-9-11-7-9--12-12---14-12-11-----12-14|
|---------------------------------------------12-14-----|
|-------------------------------------------------------|
|-------------------------------------------------------|

|-----12h15p12--------12h15p12-----12h15p12--------------------|
|12-13--------13-12-13--------12-13--------13-12h13p12-10------|
|--------------------------------------------------------12-14-|
|--------------------------------------------------------------|
|--------------------------------------------------------------|
|--------------------------------------------------------------|

|-------------------------------------------------------------------------|
|-------12-----12----------12-------------12-13-10-12---------------------|
|-----14-----14------12-14---12-----12-14------------12-14-11-12-9-11-----|
|12-14-----12---12-14----------12-14---------------------------------12-14|
|-------------------------------------------------------------------------|
|-------------------------------------------------------------------------|

|----------------------------------|
|----------------------------------|
|----------------------------------|
|10-12-9-10-------------9-10-12-14~|
|----------12-14-9-10-12-----------|
|----------------------------------|

|-----------------------------------------| play 6x,
|-----------------------------------------| play each ending 3x alternating
|-----------------------------------------|
|-------------------5-------------------5-|
|-------------------3-------------------3-|
|-0-0-0-0-0-0-0-0-0---0-0-0-0-0-0-0-0-0---|

End 1:
|-----------------------------------|
|-----------------------------------|
|-----------------------------------|
|--7---------7----------------------|
|--5-5-5-5-5-5-5-5-5-5-7---------9-7|
|----------------------5-5-5-5-5-7-5|

End 2:
|-----------------------------------|
|-----------------------------------|
|-----------------------------------|
|--7---------7----------------------|
|--5-5-5-5-5-5-5-5-5-5-7---------5-4|
|----------------------5-5-5-5-5-3-2|

End on
|---|
|---|
|---|
|2~-|
|2~-|
|0~-|

Find guitar tabs and chords

A B C D E F G H I J K L M N O P Q R S T U V W X Y Z #