GuitarTabsExplorer icon
GuitarTabsExplorer icon

Log in

Songbook

  • Log in to add and see bookmarks

Last visited songs

    No songs visited yet...

Wasted by Def Leppard

Tabs

Intro

e------------------------------------------------
B------------------------------------------------
G------------------------------------------------
D-----9-----7-----12-----9-----7----------5-7-4--
A-----7-----5-----10-----7-----5----------3-5-2--
E-0-0---0-0---0-0----0-0---0-0---0-0---0---------

Do that a few times and then you do this...

e------------------------------------------------
B------------------------------------------------
G--7-----5---------------------------------------
D--7--7--5---------------------------------------
A--5--7--3----------2-0--------------------------
E-----5-----------3-----3-2-0--------------------

And that's everyting ;D.. It's very simple..

Other versions of Wasted

Alternative guitar chords and tabs for Wasted by Def Leppard

VersionType
WastedChords

[ Privacy | About us ]

Welcome to the guitar community

Why join and log in?
- Get songbook with favourite songs
- Get custom made front page
- Submit chords and tabs
- Submit guitar-cover videos
- Get a lot of thumbs up for your work

Songbook

Last visited songs

Site
Home
Search
Community
Submit chords

Video

No video for this page. Check out how you can submit guitar-cover videos here

Search tabs and chords

Browse by artist

A B C D E F G H I J K L M N O P Q R S T U V W X Y Z #


Menu

Search

Video

Bookmark

Login