GuitarTabsExplorer icon
GuitarTabsExplorer icon

Log in

Songbook

  • Log in to add and see bookmarks

Last visited songs

    No songs visited yet...

Photograph by Def Leppard

Tabs

Artist:Def Leppard
Song:Photograph
Tabbed by: Jon Leblanc#14

this is a great song from the album Pyromania and Vault.Wicked solo and
tab.

e:-----------------|-----------------|-----------------|----------------
B:-----------------|-----------------|-----------------|----------------
G:-----------------|---9-9-9-8-8-----|-9-9-----7~~~~~--|---9-9-9-8-8----
D:-----------------|---9-9-9-9-9-----|-7-7-----7~~~~~--|---9-9-9-9-9----
A:-----------------|-----------------|-----------------|----------------
E:-----------------|-----------------|-----------------|----------------

e:-----------------|-----------------|-----------------|----------------
B:-----------------|-----------------|-----------------|----------------
G:-9-9-----7~~~----|---9-9-8-8-8-----|---9-9-7-7-7-----|---9-9-8-8-8----
D:-7-7-----7~~~----|---9-9-9-9-9-----|---7-7-7-7-7-----|---9-9-9-9-9----
A:-----------------|-----------------|-----------------|----------------
E:-----------------|-----------------|-----------------|----------------

Verse
e:-----------------|-----------------|-----------------|----------------
B:-----------------|-----------------|-----------------|----------------
G:---9-9-7-7-7-----|---9-9-8-8-8-----|---9-9-7-7-7-----|---9-9-8-8-8----
D:---7-7-7-7-7-----|---9-9-9-9-9-----|---7-7-7-7-7-----|---9-9-9-9-9----
A:-----------------|-----------------|-----------------|----------------
E:-----------------|-----------------|-----------------|----------------
    I'm ....

e:-----------------|-----------------|-----------------|----------------
B:-----------------|-----------------|-----------------|----------------
G:---9-9-7-7-7-----|---9-9-8-8-8-----|---9-9-7-7-7-----|---9-9-8-8-8----
D:---7-7-7-7-7-----|---9-9-9-9-9-----|---7-7-7-7-7-----|---9-9-9-9-9----
A:-----------------|-----------------|-----------------|----------------
E:-----------------|-----------------|-----------------|----------------
 -ture of p....

e:-------0---------|-----------------|-----------------|----------------
B:-------2---------|-----------------|-----------------|----------------
G:-2-2-2-2---------|---9-9-8-8-8-----|---9-9-7-7-7-----|---9-9-8-8-8----
D:-2-2-2-2---------|---9-9-9-9-9-----|---7-7-7-7-7-----|---9-9-9-9-9----
A:-0-0-0-0---------|-----------------|-----------------|----------------
E:-----------------|-----------------|-----------------|----------------
  touch     I  see ....

e:-----------------|-----------------|-----------------|----------------
B:-----------------|-----------------|-----------------|-------------2-2
G:---9-9-7-7-7-----|---9-9-8-8-8-----|---9-9-7-7-9-9-9-|-9---4-4-----2-2
D:---7-7-7-7-7-----|---9-9-9-9-9-----|---7-7-7-7-9-9-9-|-9---4-4-----2-2
A:-----------------|-----------------|-----------7-7-7-|-7---2-2-----0-0
E:-----------------|-----------------|-----------------|----------------
  magazine.. wild  so free  So ...

Pre-Chorus (X 2)
e:-----------------|-3-3-3---------3-|-3-3-----------2-|---------------2
B:-----------------|-3-3-3---------0-|-0-0-----------3-|-2-2-----------3
G:---9-9---9-9-9---|.0-0-0---------0-|-0-0-----------2-|-2-2-----------2
D:---7-7---7-7-7---|.X-X-X---------X-|-X-X-----------0-|-2-2-----------0
A:---0-0---0-0-0---|-3-3-3---------2-|-2-2-------------|-0-0------------
E:-----------------|-----------------|-----------------|----------------
   Yeah...        ...
          Chorus:
e:-----------------|-----------------|-----------------|----------------
B:-2-2-------2-2---|-----------------|-----------------|----------------
G:-2-2-------2-2--.|-----0-------0---|-----0-------0---|-----0------0---
D:-2-2-------2-2--.|---0-------2-----|---4-------4-----|---0------2-----
A:-0-0-------0-0---|-2-----3---------|-5-----7---------|-2-----3--------
E:------4~~--------|-----------------|-----------------|----------------
           Photograph    ...

e:-----------------|-----------------|-----------------|----------------
B:-----------------|-----------------|-----------------|----------------
G:-----0------0----|-----0------0----|-----0-------0---|-----0------0---
D:---4------4------|---0------2------|---4-------4-----|---0------2-----
A:-7-----5-------0-|-2-----3---------|-5-----7---------|-2-----3------3-
E:-----------------|-----------------|-----------------|----------------
  I dont need your Photograph    All I've got is a Photograph

e:-----------------|-----------------|-----------------|----------------
B:-----------------|-----------------|-----------------|----------------
G:-----------------|-4/5-5-5-4/5-5-5-|-4/5-5-5-4/5-5-5-|-4/5-5-5--------
D:-----------------|-----------------|-----------------|----------------
A:-----------------|-----------------|-----------------|----------------
E:-----------------|-----------------|-----------------|----------------
  Its not enough

          Chorus
e:-----------------|-----------------|-----------------|----------------
B:-----------------|-----------------|-----------------|----------------
G:-(Repeat-verse,--|-----0-------0---|-----0-------0---|-----0-------0--
D:----pre-chorus)--|---0-------2-----|---4-------4-----|---0-------2----
A:-----------------|-2------3--------|-5-----7---------|-2-----3--------
E:-----------------|-----------------|-----------------|----------------
           Photograph    I dont want your Photograph


                      End Chorus
e:-----------------|-----------------|-----------------|----------------
B:-----------------|-----------------|-----------------|----------------
G:-----0-------0---|-----0-------0---|-----0-------0---|-----0-------0--
D:---4-------4-----|---0-------2-----|---4-------4-----|---0-------2----
A:-7-----5---------|-2-----3---------|-5-----7---------|-2-----3-------0
E:-----------------|-----------------|-----------------|----------------
  I dont need your Photograph    All Ive got is a Photograph


           Interlude:
e:-----------------|-----------------|-----------------|----------------
B:-----------------|-----------------|-----------------|----------------
G:-----0---0-------|---9-9-9-8-8-----|-9-9---7---------|---9-9-9-8-8----
D:---4---4---------|---9-9-9-9-9-----|-7-7---7---------|---9-9-9-9-9----
A:-7---------------|-----------------|-----------------|----------------
E:-----------------|-----------------|-----------------|----------------
  Gone ....

                             Solo:
e:-----------------|-----------------|-----------------|----------------
B:-----------------|-----------------|-----------------|-------------15^
G:-9-9---7---------|---9-9-9-8-8-----|-9-9---7---------|-8--------------
D:-7-7---7---------|---9-9-9-9-9-----|-7-7---7---------|----------------
A:-----------------|-----------------|-----------------|----------------
E:-----------------|-----------------|-----------------|----------------


  Full   Full                Full       Full
e:-----------15^---|-----------------|-----------------|----------------
B:-15^-15-12-------|-----------------|-----------------|-12-12p9--------
G:-----------------|-----------------|-----------------|---------11^----
D:-----------------|-14~14~14~11-14~~|-14~11-14-16^----|----------------
A:-----------------|-----------------|-----------------|----------------
E:-----------------|-----------------|-----------------|----------------


           Full  Full     Full
e:---12-11-9-------|---------14^-14^-|-12-14^-12---12--|----------------
B:-9---------12p9--|-12^--~~~--------|----------14-----|---9~~-9-9-10-12
G:-----------------|-----------------|---------------9-|-11-------------
D:-----------------|-----------------|-----------------|----------------
A:-----------------|-----------------|-----------------|----------------
E:-----------------|-----------------|-----------------|----------------


                    Full
e:-X----------------|-----------------|-----------------|---------------
B:-X-17-17-19-21-19-|-16-19-21-19-21--|-22^-------------|---------------
G:------------------|-----------------|-----------------|-(Repeat-pre---
D:------------------|-----------------|-----------------|--chorus-and---
A:------------------|-----------------|-----------------|--2nd-chorus)--
E:------------------|-----------------|-----------------|---------------


                    P.M............
e:-----------------|-----------------|-----------------|----------------
B:-----------------|-----------------|-----------------|----------------
G:-----0-----0-0---|-----------------|-----------------|-5-5-5-5-7-7-9--
D:---0-----2---2---|-----------------|---------5-5-5-5-|-5-5-5-5-7-7-9--
A:-2-----3-----3---|-----------------|-3-3-3-3-3-3-3-3-|-3-3-3-3-5-5-7--
E:-----------------|-----------------|-----------------|----------------
  Photograph    I ...


  Chorus 3:

e:-----------------|-----------------|-----------------|----------------
B:-----------------|-----------------|-----------------|----------------
G:-----0-------0---|------0------0---|-----0------0----|-----0-----0----
D:---0-------2-----|---4-------4-----|---0------2------|---4-----4------
A:-2-----3---------|-5------7--------|-2-----3---------|-5-----7--------
E:-----------------|-----------------|-----------------|----------------
  Photograph    Ohh        Photograph    Yeaah

  (W/Chorus 3)
  Outro solo:                  Full

e:-----------------|------------------|-----------------|---------------
B:-15^--15~~~12-13-|-15-13-13p12-9-12-|-----------------|---------------
G:-----------------|------------------|-14-12-14-14^----|-12-14~~~-12-14
D:-----------------|------------------|-----------------|---------------
A:-----------------|------------------|-----------------|---------------
E:-----------------|------------------|-----------------|---------------


  Full  P.H...      Full       Full      Full
e:-----------------|-------17^-19~~~-|-15-19-17^-------|-15-17^-15-17~~~
B:-----------------|-5-5-------------|-----------15-17-|----------------
G:-14^----12-14^---|-----------------|-----------------|----------------
D:-----------------|-----------------|-----------------|----------------
A:-----------------|-----------------|-----------------|----------------
E:-----------------|-----------------|-----------------|----------------


      Full

e:-17-19-21-20^----|-17p15p14--------|-----------------|
B:-----------------|----------17....-|-----------------|
G:-----------------|-----------------|-----------------|
D:-----------------|-----------------|--(Fade-Out...)--|
A:-----------------|-----------------|-----------------|
E:-----------------|-----------------|-----------------|

"It's better to burn out then fade away!"
       "have fun"(Jon)

Other versions of Photograph

Alternative guitar chords and tabs for Photograph by Def Leppard

VersionType
PhotographChords
Photograph (Ver. 2)Tabs
Photograph (Ver. 3)Tabs

[ Privacy | About us ]

Welcome to the guitar community

Why join and log in?
- Get songbook with favourite songs
- Get custom made front page
- Submit chords and tabs
- Submit guitar-cover videos
- Get a lot of thumbs up for your work

Songbook

Last visited songs

Site
Home
Search
Community
Submit chords

Video

No video for this page. Check out how you can submit guitar-cover videos here

Search tabs and chords

Browse by artist

A B C D E F G H I J K L M N O P Q R S T U V W X Y Z #


Menu

Search

Video

Bookmark

Login