Log in

One click and you are in

Login with Facebook Login with Google

Why sign up and log in

Guitar Tabs Explorer
Def Leppard bass tabs for All i want is everything

Bass tabs with lyrics

Track 4 from Slang - All I Want Is Everything


Tuning - Standard

Key - Bm

G |-----|
D |--4--|
A |-----|
E |-----|
           Verse
G |----------------------|----------------------|
D |----------------------|----------------------| X4
A |--2-----2----2--2-----|--0-----0----0--2--4--|
E |-------------------2--|----------------------|

G |----------------------|----------------------|---------------------|----------------------|
D |----------------------|----------------------|---------------------|----------------------|
A |--2-----2----2--2-----|----------------------|---------------------|--0-----0----0--2--4--|
E |-------------------2--|--0-----0----0--0--0--|--3-----3----3----3--|----------------------|

G |----------------------|----------------------|
D |----------------------|----------------------| X2
A |--2-----2----2--2-----|--0-----0----0--2--4--|
E |-------------------2--|----------------------|

G |----------------------|----------------------|
D |----------------------|----------------------|
A |--2-----2----2--2-----|----------------------|
E |-------------------2--|--0-----0----0--0--0--|


            Chorus
G |---------------------|---------------------------|
D |---------------------|---------------------------|
A |---------------------|--0-----0----0----0--2--4--|
E |--3-----3----3----3--|---------------------------|

G |-------------------------|-------------------|----------------|-------------------------|
D |--0-----0~~-----0--0--0--|-------------------|--2-------2--2--|-------------------------|
A |-------------------------|--0~~-----0--0--2--|----------------|--2-----2~~-----2--2--0--|
E |-------------------------|-------------------|----------------|-------------------------|

G |-------------------------|-------------------|-------------------|-------------------------|
D |--0-----0~~-----0--0--0--|-------------------|--2-------2--2--2--|-------------------------|
A |-------------------------|--0~~-----0--0--2--|-------------------|--2-----2~~-----2--2--2--|
E |-------------------------|-------------------|-------------------|-------------------------|

  "Tomorrow Never Comes"
G |-----------------------|
D |------------0-----0~~--|
A |--3--------------------|
E |-------3---------------|

          Verse II
G |----------------------|----------------------|
D |----------------------|----------------------| X2
A |--2-----2----2--2-----|--0-----0----0--2--4--|
E |-------------------2--|----------------------|

G |----------------------|----------------------|
D |----------------------|----------------------|
A |--2-----2----2--2-----|----------------------|
E |-------------------2--|--0-----0----0--0--0--|

G |---------------------|---------------------------|
D |---------------------|---------------------------|
A |---------------------|--0-----0----0----0--2--4--|
E |--3-----3----3----3--|---------------------------|

G |----------------------|----------------------|
D |----------------------|----------------------| X2
A |--2-----2----2--2-----|--0-----0----0--2--4--|
E |-------------------2--|----------------------|

G |----------------------|----------------------|
D |----------------------|----------------------|
A |--2-----2----2--2-----|----------------------|
E |-------------------2--|--0-----0----0--0--0--|


          Chorus II
G |---------------------|---------------------------|
D |---------------------|---------------------------|
A |---------------------|--0-----0----0----0--2--4--|
E |--3-----3----3----3--|---------------------------|

G |-------------------------|-------------------|----------------|-------------------------|
D |--0-----0~~-----0--0--0--|-------------------|--2-------2--2--|-------------------------|
A |-------------------------|--0~~-----0--0--2--|----------------|--2-----2~~-----2--2--0--|
E |-------------------------|-------------------|----------------|-------------------------|

G |-------------------------|-------------------|-------------------|-------------------------|
D |--0-----0~~-----0--0--0--|-------------------|--2-------2--2--2--|-------------------------|
A |-------------------------|--0~~-----0--0--2--|-------------------|--2-----2~~-----2--2--2--|
E |-------------------------|-------------------|-------------------|-------------------------|

  "Tomorrow Never Comes"
G |-----------------------|
D |------------0-----0~~--|
A |--3--------------------|
E |-------3---------------|


Rest for a moment


  Solo
G |-----|
D |--4--|
A |-----|
E |-----|

G |-------------------|-------------------|
D |----------------0--|--0-----2--2----0--|
A |--2~~-----2--2-----|-------------------|
E |-------------------|-------------------|

G |-------------------|----------------------|--------------------|--------------|
D |----------------0--|--0--------2--2----0--|-----------4-----0--|--2--2-----0--|
A |--2~~-----2--2-----|--------2-------------|--2-----2-----2-----|--------------|
E |-------------------|----------------------|--------------------|--------------|


                         Bridge
G |------------------------|--------------------------|--------------------------|--------------------------|
D |------------------------|-----------------2--------|--0--0--0--0--0--0--0--0--|--------------------------|
A |------------------5-----|--0-----0-----0-----0--2--|--------------------------|--0--0--0--0--0--0--0--0--|
E |--3-----3------3-----3--|--------------------------|--------------------------|--------------------------|

G |-----------------------|--------------------------|--------------------------|--------------------------|
D |--2-2----2--2--2----2--|--------------------------|--0--0--0--0--0--0--0--0--|--------------------------|
A |-----------------------|--2--2--2--2--2--2--2--2--|--------------------------|--0--0--0--0--0--0--0--0--|
E |-----------------------|--------------------------|--------------------------|--------------------------|


        "All I Want is Everything"
G |-----------------------|--------------------------|
D |--2-2----2--2--2----2--|--------------------------|
A |-----------------------|--2--2--2--2--2--2--2--2--|
E |-----------------------|--------------------------|

G |---------|
D |--0~~~~--|
A |---------|
E |---------|


Rest for a moment


                    Final Verse
G |-------------------------|-------------------|------------------|-------------------------|
D |--0-----0~~-----0--0--0--|-------------------|--2-------2----2--|-------------------------|
A |-------------------------|--0~~-----0--0--0--|------------------|--2-----2~~-----2--2--2--|
E |-------------------------|-------------------|------------------|-------------------------|

 "Tomorrow Never Comes"
G |-----------------|
D |--3---------0~~--|
A |-----------------|
E |-------3---------|

            Outro
G |----------------------|----------------------|
D |----------------------|----------------------| X7
A |--2-----2----2--2-----|--0-----0----0--2--4--|
E |-------------------2--|----------------------|

G |------------------------|----------------------|
D |------------------------|----------------------|
A |--2~~-------2--2--2-----|--0-----0----0--2--4--|
E |---------2-----------2--|----------------------|

G |----------------------|----------------------|
D |----------------------|----------------------| X2
A |--2-----2----2--2-----|--0-----0----0--2--4--|
E |-------------------2--|----------------------|

G |----------------------|-----------------------|------------------------|----------------------|
D |----------------------|-----------------------|------------------------|----------------------|
A |--2-----2----2--2-----|--0-----0-----0--2--4--|--2~~-------2--2--2-----|--0-----0----0--2--4--|
E |-------------------2--|-----------2-----------|---------2-----------2--|----------------------|

Almost there ...

Sign in to get your own page with links to favourite songs and more. You are just one click away...

Login with Facebook Login with Google