Search tabs and chords

Search for song, artist or band

Log in

One click and you are in

Login with Facebook Login with Google

Why sign up and log in

Guitar Tabs Explorer
Cosmo Pyke guitar tabs for Chronic sunshine

Guitar tabs with lyrics

INTRO:

'Because I've

e|---------------------------------------------------------------------------|
B|-7----5--------7----5--------7----5----------------------------------------|
G|-6----4--------6----4--------6----4----------------------------------------|
D|------3-------------3-------------3----------------------------------------|
A|-5-------------5-------------5---------------------------------------------|
E|------3-------------3-------------3----------------------------------------|

VERSE 1:

had enough of all this controversy'

e|---------------------------2---5-------------------------------------------|
B|-7----5----5-5-3-----------3---7---3---------------------------------------|
G|-6----4----4-4-4-----------2---6---4---------------------------------------|
D|------3----3-3-4-----------4---7---4---------------------------------------|
A|-5-------------x----0h1/2--2---5---x---------------------------------------|
E|------3----3-3-3-------------------3---------------------------------------|

'I've been affected and I can't lie, that shit quite frankly bothers me'

e|-----------------0----------2---5---10-------------------------------------|
B|-7----5----5-5-3---3--------3---7---12-------------------------------------|
G|-6----4----4-4-4------------2---6---11-------------------------------------|
D|------3----3-3-4------------4---7---12-------------------------------------|
A|-5-------------x-----0h1/2--2---5---10-------------------------------------|
E|------3----3-3-3-----------------------------------------------------------|

'She said she said you're the man, I'm on together and I'm having doubts'

e|-----------------0----------2---5------------------------------------------|
B|-7----5----5-5-3---3--------3---7---3----3---------------------------------|
G|-6----4----4-4-4------------2---6---4--------------------------------------|
D|------3----3-3-4------------4---7---4--------------------------------------|
A|-5-------------x-----0h1/2--2---5---x--------------------------------------|
E|------3----3-3-3--------------------3--------------------------------------|

'Weed won't hurt you or all your plans, paraphernalia and contraband'

e|-------------------0----------2---5---10-----------------------------------|
B|-7----5-5----5-5-3---3--------3---7---12-----------------------------------|
G|-6----4---4--4-4-4------------2---6---11-----------------------------------|
D|------3------3-3-4------------4---7---12-----------------------------------|
A|-5---------------x-----0h1/2--2---5---10----10-----------------------------|
E|------3------3-3-3---------------------------------------------------------|

PRE-CHORUS:

'I wasn't 'llowed to I was proud to come, to terms with germs and fuckries in my life'

e|-9----9----9--------7---7----9----9--------7---7---7---8-/9----------------|
B|-10---10---10-------7---7----10---10-------7---7---7---9-/10---------------|
G|-9----9----9--------7---7----9----9--------7---7---7---8-/9----------------|
D|-11---11---11-------7---7----11---11-------7---7---7---10/11---------------|
A|-9----9----9--------9---9----9----9--------9---9---9---8-/9----------------|
E|----------------5/7-7---7--------------5/7-7---7---7-----------------------|

'All I'm sayin' is that's not me, it could be you for all eternity'

e|-9----9----9------5--4--3--3-3-3-3-3-3-3-3-3--3-3-3-3-3-3-3-3-3------------|
B|-10---10---10-----7--6--5--3-3-3-3-3-3-3-3-3--3-3-3-3-3-3-3-3-3------------|
G|-9----9----9------6--5--4--4-4-4-4-4-4-4-4-4--3-3-3-3-3-3-3-3-3------------|
D|-11---11---11-----7--6--5--5-5-5-5-5-5-5-5-5--5-5-5-5-5-5-5-5-5------------|
A|-9----9----9------5--4--3--5-5-5-5-5-5-5-5-5--5-5-5-5-5-5-5-5-5------------|
E|---------------------------3-3-3-3-3-3-3-3-3--3-3-3-3-3-3-3-3-3------------|

CHORUS:

'Chronic sunshines forever, you know that it don't really though'

e|-5-5-5-5-5----0----------2---2---2---5--5----------------------------------|
B|-7-7-7-7-7--3---3--------2h3-2h3-3---7--7---5/6/7--------------------------|
G|-6-6-6-6-6--4------------2---2---2---6--6---4/5/6--------------------------|
D|-7-7-7-7-7--4------------4---4---4---7--7---3/4/5--------------------------|
A|-5-5-5-5-5--x------0h1/2-2---2---2---5--5----------------------------------|
E|------------3-------------------------------3/4/5--------------------------|

'I'm getting spat out of Peckham, while you're cycling home'

e|---------7--7-7-7-7----------------------10-10--10-10-10-------------------|
B|-7-7-7---7--7-7-7-7--10-10-10--10-10-10--12-12--12-12-12-------------------|
G|-6-6-6---7--7-7-7-7--11-11-11--11-11-11--11-11--11-11-11-------------------|
D|-5-5-5---7--7-7-7-7--11-11-11--11-11-11--12-12--12-12-12-------------------|
A|---------9--9-9-9-9--x--x--x---x--x--x---10-10--10-10-10-------------------|
E|-5-5-5---7--7-7-7-7--10-10-10--10-10-10------------------------------------|

'It's an ongoing circle, no sights to behold'

e|-5-5-5---5----0----------2---2---2---5-5-5---------------------------------|
B|-7-7-7---7--3---3--------2h3-2h3-3---7-7-7---5/6/7-------------------------|
G|-6-6-6---6--4------------2---2---2---6-6-6---4/5/6-------------------------|
D|-7-7-7---7--4------------4---4---4---7-7-7---3/4/5-------------------------|
A|-5-5-5---5--x------0h1/2-2---2---2---5-5-5---------------------------------|
E|------------3--------------------------------3/4/5-------------------------|

'Vicious repetitions, but I'm still cycling home'

e|---------7-7--7-7-7--------------------10-10--10-10-10---------------------|
B|-7-7-7---7-7--7-7-7--10-10---10-10-10--12-12--12-12-12---------------------|
G|-6-6-6---7-7--7-7-7--11-11---11-11-11--11-11--11-11-11---------------------|
D|-5-5-5---7-7--7-7-7--11-11---11-11-11--12-12--12-12-12---------------------|
A|---------9-9--9-9-9--x--x----x--x--x---10-10--10-10-10---------------------|
E|-5-5-5---7-7--7-7-7--10-10---10-10-10--------------------------------------|

VERSE 2:

'She said she said you're a star, Cosmo, and you're a star and we're all star stuff'

e|---------------------------2---5-------0-----------------------------------|
B|-7----5----5-5-3-----------3---7---3---------------------------------------|
G|-6----4----4-4-4-----------2---6---4---------------------------------------|
D|------3----3-3-4-----------4---7---4---------------------------------------|
A|-5-------------x----0h1/2--2---5---x---------------------------------------|
E|------3----3-3-3-------------------3---------------------------------------|

'That rebounds but first the outcome's weak, before you know ?: or what to speak'

e|-----------------0----------2---5---10-------------------------------------|
B|-7----5----5-5-3---3--------3---7---12-------------------------------------|
G|-6----4----4-4-4------------2---6---11-------------------------------------|
D|------3----3-3-4------------4---7---12-------------------------------------|
A|-5-------------x-----0h1/2--2---5---10-------------------------------------|
E|------3----3-3-3-----------------------------------------------------------|

'I just forgot what I was thinking, all these blues have got me sinking'

e|-----------------0----------2---5------------------------------------------|
B|-7----5----5-5-3------------3---7---3--------------------------------------|
G|-6----4----4-4-4------------2---6---4--------------------------------------|
D|------3----3-3-4------------4---7---4--------------------------------------|
A|-5-------------x-----0h1/2--2---5---x--------------------------------------|
E|------3----3-3-3--------------------3--------------------------------------|

'I dropped it on the floor because of your missed call, the one you sent to me'

e|-----------------0----------2---5---10-------------------------------------|
B|-7----5----5-5-3---3--------3---7---12-------------------------------------|
G|-6----4----4-4-4------------2---6---11-------------------------------------|
D|------3----3-3-4------------4---7---12-------------------------------------|
A|-5-------------x-----0h1/2--2---5---10-------------------------------------|
E|------3----3-3-3-----------------------------------------------------------|

PRE-CHORUS:

'I wasn't 'llowed to I was proud to come, to terms with germs and fuckries in my life'

e|-2---2---2---2---7---7---7---7---2---2---2---2---7---7---7-----------------|
G|-2---2---2---2---7---7---7---7---2---2---2---2---7---7---7-----------------|
G|-2---2---2---2---7---7---7---7---2---2---2---2---7---7---7-----------------|
D|-2---2---2---2---7---7---7---7---2---2---2---2---7---7---7-----------------|
A|-4---4---4---4---9---9---9---9---4---4---4---4---9---9---9-----------------|
E|-2---2---2---2---7---7---7---7---2---2---2---2---7---7---7-----------------|

'All I'm sayin' is that's not me, it could be you for all eternity'

e|-2---2---2---5--4--3--3-3-3-3-3-3-3-3-3--3-3-3-3-3-3-3-3-3-----------------|
G|-2---2---2---7--6--5--3-3-3-3-3-3-3-3-3--3-3-3-3-3-3-3-3-3-----------------|
G|-2---2---2---6--5--4--4-4-4-4-4-4-4-4-4--3-3-3-3-3-3-3-3-3-----------------|
D|-2---2---2---7--6--5--5-5-5-5-5-5-5-5-5--5-5-5-5-5-5-5-5-5-----------------|
A|-4---4---4---5--4--3--5-5-5-5-5-5-5-5-5--5-5-5-5-5-5-5-5-5-----------------|
E|-2---2---2------------3-3-3-3-3-3-3-3-3--3-3-3-3-3-3-3-3-3-----------------|

CHORUS:

'Chronic sunshines forever, you know that it don't really though'

e|-5-5-5---5----0----------2---2---2---5-5-5---------------------------------|
B|-7-7-7---7--3---3--------2h3-2h3-3---7-7-7---5/6/7-------------------------|
G|-6-6-6---6--4------------2---2---2---6-6-6---4/5/6-------------------------|
D|-7-7-7---7--4------------4---4---4---7-7-7---3/4/5-------------------------|
A|-5-5-5---5--x------0h1/2-2---2---2---5-5-5---------------------------------|
E|------------3--------------------------------3/4/5-------------------------|

'I'm getting spat out of Peckham, while you're cycling home'

e|---------7--7-7-7-7----------------------10-10--10-10-10-------------------|
B|-7-7-7---7--7-7-7-7--10-10-10--10-10-10--12-12--12-12-12-------------------|
G|-6-6-6---7--7-7-7-7--11-11-11--11-11-11--11-11--11-11-11-------------------|
D|-5-5-5---7--7-7-7-7--11-11-11--11-11-11--12-12--12-12-12-------------------|
A|---------9--9-9-9-9--x--x--x---x--x--x---10-10--10-10-10-------------------|
E|-5-5-5---7--7-7-7-7--10-10-10--10-10-10------------------------------------|

'It's an ongoing circle, no sights to behold'

e|-5-5-5-5-5----0----------2---2---2---5-5-5---------------------------------|
B|-7-7-7-7-7--3---3--------2h3-2h3-3---7-7-7---5/6/7-------------------------|
G|-6-6-6-6-6--4------------2---2---2---6-6-6---4/5/6-------------------------|
D|-7-7-7-7-7--4------------4---4---4---7-7-7---3/4/5-------------------------|
A|-5-5-5-5-5--x------0h1/2-2---2---2---5-5-5---------------------------------|
E|------------3--------------------------------3/4/5-------------------------|

'Vicious repetitions, but I'm still cycling home'

e|---------7-7--7-7-7--------------------10---10-----------------------------|
B|-7-7-7---7-7--7-7-7--10-10---10-10-10--12---11-----------------------------|
G|-6-6-6---7-7--7-7-7--11-11---11-11-11--11---10-----------------------------|
D|-5-5-5---7-7--7-7-7--11-11---11-11-11--12---12-----------------------------|
A|---------9-9--9-9-9--x--x----x--x--x---10---10-----------------------------|
E|-5-5-5---7-7--7-7-7--10-10---10-10-10--------------------------------------|

BRIDGE:

During the bridge play this 4 times:

e|-7----------5----------7----------5----------------------------------------|
G|-7----------7----------7----------7----------------------------------------|
G|-7----------6----------7----------6----------------------------------------|
D|-7----------7----------7----------7----------------------------------------|
A|-9----------5----------9----------5----------------------------------------|
E|-7---------------------7---------------------------------------------------|

CHORUS:

'But I leave you with this, chronic sunshines forever'

e|-5-5-5-5-5-5---------------------2---2---2---5-5-5-------------------------|
B|-7-7-7-7-7-7--3-3-3-3-3-3--------2h3-2h3-3---7-7-7---5/6/7-----------------|
G|-6-6-6-6-6-6--4-4-4-4-4-4--------2---2---2---6-6-6---4/5/6-----------------|
D|-7-7-7-7-7-7--4-4-4-4-4-4--------4---4---4---7-7-7---3/4/5-----------------|
A|-5-5-5-5-5-5--x-x-x-x-x-x--0h1/2-2---2---2---5-5-5-------------------------|
E|--------------3-3-3-3-3-3----------------------------3/4/5-----------------|

'While you're cycling home'

e|---------7--7-7-7-7----------------------10-10--10-10-10-------------------|
B|-7-7-7---7--7-7-7-7--10-10-10--10-10-10--12-12--12-12-12-------------------|
G|-6-6-6---7--7-7-7-7--11-11-11--11-11-11--11-11--11-11-11-------------------|
D|-5-5-5---7--7-7-7-7--11-11-11--11-11-11--12-12--12-12-12-------------------|
A|---------9--9-9-9-9--x--x--x---x--x--x---10-10--10-10-10-------------------|
E|-5-5-5---7--7-7-7-7--10-10-10--10-10-10------------------------------------|

'It's an ongoing circle, no sights to behold'

e|-5--5--5-5----0----------2---2---2---5-5-5---------------------------------|
B|-7--7--7-7--3---3--------2h3-2h3-3---7-7-7---5/6/7-------------------------|
G|-6--6--6-6--4------------2---2---2---6-6-6---4/5/6-------------------------|
D|-7--7--7-7--4------------4---4---4---7-7-7---3/4/5-------------------------|
A|-5--5--5-5--x------0h1/2-2---2---2---5-5-5---------------------------------|
E|------------3--------------------------------3/4/5-------------------------|

'Vicious repetitions, but I'm still cycling home, I'm still cycling home'

e|---------7-7--7-7-7--------------------10---10---5-------------------------|
B|-7-7-7---7-7--7-7-7--10-10---10-10-10--12---11---7-------------------------|
G|-6-6-6---7-7--7-7-7--11-11---11-11-11--11---10---6-------------------------|
D|-5-5-5---7-7--7-7-7--11-11---11-11-11--12---12---7-------------------------|
A|---------9-9--9-9-9--x--x----x--x--x---10---10---5-------------------------|
E|-5-5-5---7-7--7-7-7--10-10---10-10-10--------------------------------------|

************************************

| x   Dead note
| h   Hammer-on
| /   Slide up

Other versions of Chronic Sunshine

Chronic sunshineChords

Almost there ...

Sign in to get your own page with links to favourite songs and more. You are just one click away...

Login with Facebook Login with Google