Search tabs and chords

Search for song, artist or band

Log in

One click and you are in

Login with Facebook Login with Google

Why sign up and log in

Guitar Tabs Explorer
Coldplay guitar tabs for Paradise (Ver. 2)

Guitar tabs

  • Capo on 5th
Tuning: Standard (E chord diagramEE A chord diagramAA D chord diagramDD G chord diagramGG B chord diagramBB E chord diagramEE)

Stave 1:

e|-------------------------------------------------------------------------------------------------------|
B|--5--3--5--3--1--3-----0-----0-----0-----0-----------------------0--3--5--3--5--3--1--3-----0-----0----|
G|--------------------------2-----------2-----2--0--2--------------------------------------------2-------|
D|-----------------------------------------------------4--2--0-------------------------------------------|
A|-------------------------------------------------------------------------------------------------------|
E|-------------------------------------------------------------------------------------------------------|
Stave 2:

e|-------------------------------------------------------------------------------------------------------|
B|-------------------------------------------------------------------------------------------------------|
G|--4--2--4--2--0--2-----------------------0--2--4-------0--2--4-----0--2--4--2--------------------------|
D|-----------------------4--2--0--------2-----------2-------------2---------------4--2--0----------------|
A|-------------------------------------------------------------------------------------------------------|
E|-------------------------------------------------------------------------------------------------------|


Stave 3:

e|-----------------------------0--3--5--7--5--3--0--0--0--0--0-------0--3--5--7--5--3--0--0--0--0--0-----|
B|--------------------------------------------------------------3-------------------------------------3--|
G|-----0--2--4--------0--2-------------------------------------------------------------------------------|
D|--2-----------2----------------------------------------------------------------------------------------|
A|-------------------------------------------------------------------------------------------------------|
E|-------------------------------------------------------------------------------------------------------|


Stave 4: (Stave 4 and 5 twice)

e|--0--3--5--3--3--5--3--3-----0--3--5--3--3-----5--3--3--5--3--3-----5--3--3----0--3--5--3--3--5--3--3--|
B|-------------------------------------------------------------------------------------------------------|
G|-------------------------------------------------------------------------------------------------------|
D|-------------------------------------------------------------------------------------------------------|
A|-------------------------------------------------------------------------------------------------------|
E|-------------------------------------------------------------------------------------------------------|

Stave 5:

e|--0--3--5--3--3-------------------------------|
B|-----------------------1--3--5--3-------------|
G|--------------------2--------------4--2--0----|
D|----------------------------------------------|
A|----------------------------------------------|
E|----------------------------------------------|

Other versions of Paradise

ParadiseChords
Paradise (Ver. 2)Chords
Paradise acousticChords
ParadiseTabs

Almost there ...

Sign in to get your own page with links to favourite songs and more. You are just one click away...

Login with Facebook Login with Google