Guitar Tabs Explorer
Christie bass tabs for Yellow river

Yellow River bass tab


1 / 5 [1 vote]

Yellow River bass tab by Christie

Bass tabs

Print

Intro:
G|------------------------------------------------------------------------------|
D|--2---2---2-----------2---2---2---------2---2---2------------2---2---2--------|
A|-------------2--4----------------2--4--------------2--4-----------------2--4--|
E|------------------------------------------------------------------------------|

Verse: x2
G|--------------------------------------------------------------------------|
D|--2-----2-----------------------------------------------------------------|
A|-----2-----2------6-----6-----4-----4----------6-----6------4-----4-------|
E|---------------4-----4-----------4-----4----4-----4------------4-----4----|

G|------------------------------------------|
D|--4-----4---------------------------------|
A|-----4-----4----2-----2------2-----2------|
E|-------------------2-----2------2-----2---|

Chorus:
G|----------------------------------------------------|
D|---2-----2-----2-----2------------------------------| x2
A|------2-----2-----2-----2-------6-----6--2-----2----|
E|-----------------------------4-----4--------2-----2-|

G|---------------------------------------------------------------------------|
D|---------------------------------------------------------------------------|
A|-4-----4-----2-----2-----------------2-----2-----4-----4-----4-------------|
E|----4-----4-----2-----2--5--0--5--0-----2-----2-----4-----4-----4--5--7----|

Verse: x2
G|---------------------------------------------------------------------------------------|
D|--2-----2---------------------------------------------------------------4-----4--------|
A|-----2-----2------6-----6-----4-----4----------6-----6------4-----4--------4-----4-----|
E|---------------4-----4-----------4-----4----4-----4------------4-----4-----------------|

G|-------------------------|
D|-------------------------|
A|--2-----2-----2-----2----|
E|-----2-----2-----2-----2-|

Chorus:
G|----------------------------------------------------|
D|---2-----2-----2-----2------------------------------| x2
A|------2-----2-----2-----2-------6-----6--2-----2----|
E|-----------------------------4-----4--------2-----2-|

G|---------------------------------------------------------------------------|
D|---------------------------------------------------------------------------|
A|-4-----4-----2-----2-----------------2-----2-----4-----4-----4-------------|
E|----4-----4-----2-----2--5--0--5--0-----2-----2-----4-----4-----4--5--7----|

Chorus:
G|----------------------------------------------------|
D|---2-----2-----2-----2------------------------------| x2
A|------2-----2-----2-----2-------6-----6--2-----2----|
E|-----------------------------4-----4--------2-----2-|

Bridge:
G|---------------------------------------------------------------------------|
D|---------------------------------------------------------------------------|
A|--7--7--7-------------7--7--7-----------7--7--7-----------7--7--7----------|
E|-----------7--9----------------7--9--------------7--9--------------9--7----|

Outro:
G|----------------------------------------------------------------------------|
D|--2-----2-----2-----2-------------------------------------------------------|
A|-----2-----2-----2-----2-----7-----7-----7-----7-----2------2-----2-----2---|
E|--------------------------5-----5-----5-----5-----0------0-----0-----0------|

G|---------------------------------------------------------------------------|
D|---------------------------------------------------------------------------|
A|-2-----2-----0-----0-------------------------------------------------------|
E|----2-----2-----0-----0-----0----------------------------------------------|

Other versions of Yellow River

Yellow river-(Ver. 2)Bass tabs

Comment this song and these bass tabs

Do you have corrections, comments on the bass tabs, thoughts about the song or a message to the author? Write them below.