Guitar Tabs Explorer
Cactus guitar tabs for Mon

Mon tab


Be the first to rate

Mon tab by Cactus

Intro

Print

|----2---2--2----2---2--2----e
	|---5---5--5----5---5--5-----B chord diagramBB
	|--4---4-------4---4---------G chord diagramGG
	|----------------------------D chord diagramDD
	|----------------------------A chord diagramAA
	|----------------------------E chord diagramEE

	|----0---0--0----0---0--0----e
	|---4---4--4----4---4--4-----B chord diagramBB
	|--4---4-------4---4---------G chord diagramGG
	|----------------------------D chord diagramDD
	|----------------------------A chord diagramAA
	|----------------------------E chord diagramEE


****************************************
I saw this tab while cactus was playing this song in TV show.
Hope u like this buddy's first tab.
****************************************

Comment this song and these intro

Do you have corrections, comments on the intro, thoughts about the song or a message to the author? Write them below.