Search tabs and chords

Browse bands and artists

A B C D E F G H I J K L M N O P Q R S T U V W X Y Z #

Log in

[ Register here | Forgot password ]

Guitar Tabs Explorer
Print

Bass tabs :

Wasn't Born To Follow bass tab by The Byrds

Tuning: 1/4 step down

0:06

G|------------------------------------------------------------------------------------------------|
D|5-----------------------------------------------5-----------------------------------------------|
A|------------5-----------3-----------4-----5-----------------5-----------3-----------4-----5-----|
E|------------------------------------------------------------------------------------------------|

G|------------------------------------------------------------------------------------------------|
D|5-----------------------------------------------5-----------------------------------------------|
A|------------5-----------3-----------4-----5-----------------5-----------3-----------3-----4-----|
E|------------------------------------------------------------------------------------------------|


0:16

G|------------------------------------------------------------------------------------------------|
D|------------------------------------------------------------------------------------------------|
A|5-----------------------5-----------------------5-----------------------5-----------------5-----|
E|------------5-----------------------5-----------------------5-----------------------5-----------|

G|------------------------------------------------------------------------------------------------|
D|------------------------------------------------------------------------------------------------|
A|3-----------------------3-----------------------3-----------------------3-----------2-----3-----|
E|------------3-----------------------3-----------------------3-----------------------------------|

G|------------------------------------------------------------------------------------------------|
D|------------------------5-----------------------------------------------5-----------------------|
A|5-----------------5-----------------5-----------3-----------4-----5-----------------5-----------|
E|------------5-----------------------------------------------------------------------------------|

G|------------------------|
D|------------------------|
A|3-----------4-----5-----|
E|------------------------|

0:33

G|------------------------------------------------------------------------------------------------|
D|5-----------------------------------------------5-----------------------------------------------|
A|------------5-----------3-----------4-----5-----------------5-----------3-----------3-----5-----|
E|------------------------------------------------------------------------------------------------|

G|------------------------------------------------------------------------------------------------|
D|5-----------------------------------------------5-----------------------------------------------|
A|------------5-----------3-----------3-----5-----------------5-----------3-----------3-----4-----|
E|------------------------------------------------------------------------------------------------|


0:43

G|------------------------------------------------------------------------------------------------|
D|------------------------------------------------------------------------------------------------|
A|5-----------------------5-----------------------5-----------------------5-----------------5-----|
E|------------5-----------------------5-----------------------5-----------------------5-----------|

G|------------------------------------------------------------------------------------------------|
D|------------------------------------------------------------------------------------------------|
A|3-----------------------3-----------------------3-----------------------3-----------3-----4-----|
E|------------3-----------------------3-----------------------3-----------------------------------|

G|------------------------------------------------------------------------------------------------|
D|------------------------5-----------------------------------------------5-----------------------|
A|5-----------------5-----------------5-----------3-----------3-----5-----------------5-----------|
E|------------5-----------------------------------------------------------------------------------|

G|------------------------|
D|------------------------|
A|3-----------3-----4-----|
E|------------------------|


1:00

G|------------------------------------------------------------------------------------------------|
D|------------------------------------------------------------------------------------------------|
A|5-----5-----5-----5-----5-----5-----5-----5-----5-----5-----5-----5-----5-----5-----5-----3-/---|
E|------------------------------------------------------------------------------------------------|

G|------------------------------------------------------------------------------------------------|
D|------------------------------------------------------------------------------------------------|
A|5-----5-----5-----5-----5-----5-----5-----5-----5-----5-----5-----5-----5-----5-----5-----5-----|
E|------------------------------------------------------------------------------------------------|

G|------------------------------------------------------------------------------------------------|
D|------------------------------------------------------------------------------------------------|
A|5-----5-----5-----5-----5-----5-----5-----3-/---5-----5-----5-----5-----5-----5-----5-----5-----|
E|------------------------------------------------------------------------------------------------|

G|------------------------------------------------------------------------------------------------|
D|------------------------------------------------------------------------------------------------|
A|5-----5-----5-----5-----5-----5-----5-----5-----5-----5-----5-----5-----5-----5-----5-----5-----|
E|------------------------------------------------------------------------------------------------|


1:21

G|------------------------------------------------------------------------------------------------|
D|5-----------------------------------------------5-----------------------------------------------|
A|------------5-----------3-----------4-----5-----------------5-----------3-----------4-----5-----|
E|------------------------------------------------------------------------------------------------|

G|------------------------------------------------------------------------------------------------|
D|5-----------------------------------------------5-----------------------------------------------|
A|------------5-----------3-----------4-----5-----------------5-----------3-----------4-----5-----|
E|------------------------------------------------------------------------------------------------|

G|------------------------------------------------------------------------------------------------|
D|5-----------------------------------------------5-----------------------------------------------|
A|------------5-----------3-----------4-----5-----------------5-----------3-----------3-----4-----|
E|------------------------------------------------------------------------------------------------|


1:36

G|------------------------------------------------------------------------------------------------|
D|------------------------------------------------------------------------------------------------|
A|5-----------------------5-----------------------5-----------------------5-----------------5-----|
E|------------5-----------------------5-----------------------5-----------------------5-----------|

G|------------------------------------------------------------------------------------------------|
D|------------------------------------------------------------------------------------------------|
A|3-----------------------3-----------------------3-----------------------3-----------------3-----|
E|------------3-----------------------3-----------------------3-----------------------3-----------|

G|------------------------------------------------------------------------------------------------|
D|------------------------5-----------------------------------------------5-----------------------|
A|5-----------------5-----------------5-----------3-----------4-----5-----------------5-----------|
E|------------5-----------------------------------------------------------------------------------|

G|------------------------------------------------------------------------------------------------|
D|------------------------5-----------------------------------------------5-----------------------|
A|3-----------3-----5-----------------5-----------3-----------3-----5-----------------------------|

Comments

The Byrds bass tabs for Wasnt born to follow