Search tabs and chords

Search for song, artist or band

Log in

One click and you are in

Login with Facebook Login with Google

Why sign up and log in

Guitar Tabs Explorer
Jeff Buckley guitar chords for Calling you

Guitar chords with lyrics

Intro:
C chord diagramCC F chord diagramFF C chord diagramCC F chord diagramFF C chord diagramCC E7 chord diagramE7E7 B7 chord diagramB7B7

Bm7b5 E chord diagramEE/D chord diagramDD C chord diagramCC#m7b5 F chord diagramFF#aug
D chord diagramDD#m7b5 G chord diagramGG#aug C chord diagramCC#m7b5 F chord diagramFF#aug

Verse 1:

 N.C.
A chord diagramAA desert road from vegas to nowhere

 N.C.
Some place better than where you've been

 N.C.
A chord diagramAA coffee machine that needs some fixing

 N.C.
In a little café just around the bend


Chorus:

Bm7b5 E chord diagramEE/D chord diagramDD      C chord diagramCC#m7b5   F chord diagramFF#aug
Ahhhhhhh    I'm calling you

Can't you hear me

D chord diagramDD#m7b5 G chord diagramGG#aug   C chord diagramCC#m7b5   F chord diagramFF#aug
Ahhhhhhh    I'm calling you

Verse 2:

  N.C.
A chord diagramAA hot dry wind blows right through me

  N.C.
The baby's crying and I can't sleep

  N.C.
But we both know a change is coming

  N.C.
Coming closer sweet release

Chorus:

Bm7b5  E chord diagramEE/D chord diagramDD     C chord diagramCC#m7b5   F chord diagramFF#aug
Ahhhhhhh    I'm calling you

Can't you hear me

D chord diagramDD#m7b5 G chord diagramGG#aug   C chord diagramCC#m7b5   F chord diagramFF#aug
Ahhhhhhh    I'm calling you

Bm7b5   E7 chord diagramE7E7
Ahhhhhhhhhh

Bridge:
C chord diagramCC F chord diagramFF C chord diagramCC F chord diagramFF C chord diagramCC E7 chord diagramE7E7 B7 chord diagramB7B7

Chorus:

Bm7b5  E chord diagramEE/D chord diagramDD     C chord diagramCC#m7b5   F chord diagramFF#aug
Ahhhhhhh    I'm calling you

Can't you hear me

D chord diagramDD#m7b5 G chord diagramGG#aug   C chord diagramCC#m7b5   F chord diagramFF#aug
Ahhhhhhh    I'm calling you

Verse 3:

 N.C.
A chord diagramAA desert road from vegas to nowhere

 N.C.
Some place better than where you've been

 N.C.
A chord diagramAA coffee machine that needs some fixing

 N.C.
In a little café just around the bend

Verse 4:

  N.C.
A chord diagramAA hot dry wind blows right through me

  N.C.
The baby's crying and I can't sleep

  N.C.
But we both know a change is coming

  N.C.
Coming closer sweet release

Chorus:

Bm7b5  E chord diagramEE/D chord diagramDD     C chord diagramCC#m7b5   F chord diagramFF#aug
Ahhhhhhh    I'm calling you

Can't you hear me

D chord diagramDD#m7b5 G chord diagramGG#aug   C chord diagramCC#m7b5   F chord diagramFF#aug
Ahhhhhhh    I'm calling you

Bm7b5 E7 chord diagramE7E7     Amaj7 chord diagramAmaj7Amaj7
Ahhhhhhhhhh...


e|-------0--------|-------0--------|-------0--------|-------0--------|
B|----------------|----------------|----------------|----------------|
G|----------------|----------------|---1-2----------|---1-2----------|
D|---6-7----------|---6-7----------|----------------|----------------|
A|-4--------------|-5--------------|----------------|-2--------------|
E|----------------|----------------|-2--------------|----------------|


e|-------0--------|-------0--------|-------0--------|-------0--------|
B|----------------|----------------|----------------|----------------|
G|----------------|----------------|---1-2----------|---1-2----------|
D|---6-7----------|---6-7----------|----------------|----------------|
A|-4--------------|-5--------------|----------------|-2--------------|
E|----------------|----------------|-2--------------|----------------|

Other versions of Calling You

Calling youTabs

Almost there ...

Sign in to get your own page with links to favourite songs and more. You are just one click away...

Login with Facebook Login with Google