Log in

One click and you are in

Login with Facebook Login with Google

Why sign up and log in

Guitar Tabs Explorer
BTS bass tabs for Home

Bass tabs

Tuning: Drop D (D A D G)


Intro:
G|------------------------------------------------------------------------|
D|------------------------------------------------------------------------| x1
A|---------5-----------5--3----------------5-----------5--3---------------|
D|--5-6-7-------5-6-7----------7-6-5~--6-7--------------------------------|

Verse 1:
G|------------------------------------------------------------------------|
D|------5------7-------------------5--------7-----------------------------| x6
A|-----------------------------------------------5-3----------------------|
D|---5------7-------0-1-2-0------5-------7----------------8-7-------------|


Pre-Chorus:
G|------------------------------------------------------------------------|
D|------------------------------------------------------------------------| x1
A|----------5-----------5--3-----------------5-----------5--3-------------|
D|--5-6-7-------5-6-7----------7-6-5~--6-7--------------------------------|


Chorus:
G|------------------------------------------------------------------------|
D|------5------7-------------------5--------7-----------------------------| x6
A|---------------------------------------------5-3------------------------|
D|---5------7-------0-1-2-0------5-------7----------------8-7-------------|


Verse 2:
G|------------------------------------------------------------------------|
D|------------------------------------------------------------------------| x1
A|----------5----------5--3-----------------5-----------5--3--------------|
D|--5-6-7-------5-6-7----------7-6-5~--6-7--------------------------------|

Bridge:
G|------------------------------------------------------------------------|
D|------5------7-------------------5--------7-----------------------------| x4
A|---------------------------------------------5-3------------------------|
D|---5------7-------0-1-2-0------5-------7----------------8-7-------------|


Pre-Chorus:
G|------------------------------------------------------------------------|
D|------------------------------------------------------------------------| x1
A|----------5----------5--3-----------------5-----------5--3--------------|
D|--5-6-7-------5-6-7----------7-6-5~--6-7-------------------------7-6-5--|


Chorus:
G|------------------------------------------------------------------------|
D|------5------7--------------------5-------7-----------------------------| x6
A|-----------------------------------------------5-3----------------------|
D|---5------7-------0-1-2--0------5-------7----------------8-7------------|


G|------------------------------------------------------------------------|
D|------------------------------------------------------------------------| x1
A|----------5----------5--3-----------------5-----------5--3--------------|
D|--5-6-7-------5-6-7----------7-6-5~--6-7--------------------------------|


************************************
| ~  Vibrato
************************************

Almost there ...

Sign in to get your own page with links to favourite songs and more. You are just one click away...

Login with Facebook Login with Google