Guitar Tabs Explorer
Boyce Avenue guitar tabs for Just cant get enough

Just Can't Get Enough tab


Be the first to rate

Just Can't Get Enough tab by Boyce Avenue

Guitar tabs

Print
Just Can't Get Enough - Black Eyed Peas (as performed by Boyce Avenue)
Arranged by: Boyce Avenue
Tabbed by: Tyler Sherrod


Video of them playing it:
http://www.youtube.com/watch?v=To2HY9i4ePA&feature=feedu_more


Tuning: Standard 1/2 step down (D# chord diagramD#D# G# chord diagramG#G# C# chord diagramC#C# F# chord diagramF#F# A# chord diagramA#A# D# chord diagramD#D#)

(with fingers the whole song)

Into/chorus 1, 2 & 3:
----------------------------------------------------------------|
----------------------------------------------------------------|
---0-------0--------0--------------0-------0--------0---2-------|
-------4-------2--------4---2----------4-------2------------2---|
---7---5-------3----7---5---3------7---5-------3--------0-------|
-----------3-------------------------------3--------3-------0---|

--------------------------------|
--------------------------------|
---0-------0--------0-----------|
-------4-------2--------4---2---|
---7---5-------3----7---5---3---|
-----------3--------------------|

Verse 1 & 2:
-----------------------------------------------------|
------8-----7-----3-----5------8-----7-----3-----5---|
-----0-----0-----0-----0------0-----0-----0-----0----|
-----------------------------------------------------|
---7-----5-----------3------7-----5-----3-----3------|
---------------3-------------------------------------|

-----------------------------------------------|
------8-----7-----3-----5------8-----7-----3---|
-----0-----0-----0-----0------0-----0-----0----| (play 2x)
-----------------------------------------------|
---7-----5-----------3------7-----5-----3------|
---------------3-------------------------------|

Bridge:
----------------------------------------------------------------|
----------------------------------------------------------------|
---0-------0--------0--------------0-------0--------0-----------|
-------4-------2--------4---2----------4-------2--------4---2---|
---7---5-------3----7---5---3------7---5-------3----7---5---3---|
-----------3-------------------------------3--------------------|

Outro:
--------------------------------|
--------------------------------|
---0-------0--------0-----------|
-------4-------2--------4---2---|
---7---5-------3----7---5---3---|

Comment this song and these guitar tabs

Do you have corrections, comments on the guitar tabs, thoughts about the song or a message to the author? Write them below.