Guitar Tabs Explorer
Boyce Avenue bass tabs for Just cant get enough

Just Can't Get Enough bass tab


Be the first to rate

Just Can't Get Enough bass tab by Boyce Avenue

Bass tabs

Print

Just Can't Get Enough (Black Eyed Peas) - Boyce Avenue
-----------------------------------------------------------------------------

Tabbed By : Acousy Joe

Tuning: Standard

Should be 100% correct.
Intro (0:00)

G|---------------------------------------------------------------------------|
D|------11--------------11---9------------11---------------------------------|
A|--9---------2-----9-----------------9----------2------9---11---6-----------|
E|----------2---------------------------------2------------------------------|

G|---------------------------------------------------------------------------|
D|------11--------------11---9-----------------------------------------------|
A|--9---------2-----9--------------------------------------------------------|
E|----------2----------------------------------------------------------------|

Verse 1 0:30

G|--11---6-----------11---6-----------------------------------------------|
D|-----------4---9------------9---9---------------------------------------| 4x
A|------------------------------------------------------------------------|
E|------------------------------------------------------------------------|

Chorus 1:12 (Same as Intro)

Verse 2 (Same as Verse 1)

Chorus 2:23

G|---------------------------------------------------------------------------|
D|------11--------------11---9------------11----------------11---9-----------|
A|--9---------2-----9-----------------9----------2------9--------------------|
E|----------2---------------------------------2------------------------------|

G|---------------------------------------------------------------------------|
D|------11--------------11---9------------11---------------------------------|
A|--9---------2-----9-----------------9----------2------9---11---6-----------|
E|----------2---------------------------------2------------------------------|

G|---------------------------------------------------------------------------|
D|------11--------------11---9------------11----------------11---9-----------|
A|--9---------2-----9-----------------9----------2------9--------------------|
E|----------2---------------------------------2------------------------------|

Comment this song and these bass tabs

Do you have corrections, comments on the bass tabs, thoughts about the song or a message to the author? Write them below.