Search tabs and chords

Search for song, artist or band

Log in

One click and you are in

Login with Facebook Login with Google

Why sign up and log in

Guitar Tabs Explorer
The Beatles bass tabs for She loves you

Bass tabs

beatles/she_loves_you.btab

Basstab by Jan Bjorklund, Finland;
jani_bjorklund@yahoo.se
You are welcome to request for basstabs!
Bienvenidos a pedirme transcripciones para el bajo!
TablEdited by Jan Bjorklund para Jesse
Tuning : E A D G 	Time Signature: 4/4

 (She)loves you...       |        |       |       |       |
|--------------------------------|--------------------------------|
|2-----------2-------------------|2-----------2-----------2-------|
|----------------2---------------|--------------------2-----------|
|--------------------------------|--------------------------------|

 |       |       |       |        |       |       |       |
|--------------------------------|--------------------------------|
|----------------2-----------2---|----------------2-------4-------|
|0-----------0-------------------|0-----------0-------------------|
|--------------------------------|--------------------------------|

 |       |       |       |        |       |       |       |
|--------------------------------|--------------------------------|
|--------------------------------|--------------------------------|
|3-----------3---------------3---|3-----------------------3-------|
|----------------3---------------|----------------3---------------|

 |       |       |       |        |       |       |       |   You
|0-----------0-------------------|0-----------0-------------------|
|----------------0---------------|----------------0-------2-------|
|--------------------------------|--------------------------------|
|--------------------------------|--------------------------------|

 think you've lost your love...   |       |       |       |
|0-----------0-----------0-------|--------------------------------|
|----------------0---------------|2-----------2---2---------------|
|--------------------------------|--------------------------------|
|--------------------------------|--------------------------------|

 |       |       |       |        |       |       |       |
|--------------------------------|--------------------------------|
|--------------------------------|0-----------0---0---------------|
|2-----------2---2---------------|--------------------------------|
|--------------------------------|--------------------------------|

 |       |       |       |        |       |       |       |
|0-----------0---0---------------|--------------------------------|
|--------------------------------|2-----------2---2---------------|
|--------------------------------|--------------------------------|
|--------------------------------|--------------------------------|

 |       |       |       |        |       |       She    said
|--------------------------------|--------------------------------|
|--------------------------------|0-----------0---0---------------|
|2-----------2---2---------------|--------------------------------|
|--------------------------------|--------------------------------|

 she loves you...|       |        |       |       |       |
|0-------------------------------|0-----------0-----------0-------|
|------------------------0-------|----------------0---------------|
|------------2-------------------|--------------------------------|
|--------------------------------|--------------------------------|

 |       |       |       |        |       |       |       | Yes she
|--------------------------------|--------------------------------|
|2-----------2-------------------|2-----------2-----------2-------|
|----------------2-----------2---|----------------2---------------|
|--------------------------------|--------------------------------|

 loves you...    |       |        |       |       |       |
|----------------0---------------|----------------0---------------|
|--------------------------------|--------------------------------|
|3-----------3---------------2---|3-----------3-----------3-------|
|--------------------------------|--------------------------------|

 |       |       |       |        |       |       |       She
|--------------------------------|--------------------------------|
|0-----------0-------------------|0-----------0-------0---2---4---|
|----------------0-------3-------|----------------0---------------|
|--------------------------------|--------------------------------|

 said you|heart her so...|        |       |       |       |
|0-----------0-----------0-------|--------------------------------|
|----------------0---------------|2-----------2---2---------------|
|--------------------------------|--------------------------------|
|--------------------------------|--------------------------------|

 |       |       |       |        |       |       |       |
|--------------------------------|--------------------------------|
|--------------------------------|0-----------0---0---------------|
|2-----------2---2---------------|--------------------------------|
|--------------------------------|--------------------------------|

 |       |       |       |        |       |       |       |
|0-----------0-----------0-------|--------------------------------|
|----------------0---------------|2-----------2---2---------------|
|--------------------------------|--------------------------------|
|--------------------------------|--------------------------------|

 |       |       |       |        |       |       |   She said she
|--------------------------------|--------------------------------|
|--------------------------------|0-----------0---0---------------|
|2-----------2---2---------------|--------------------------------|
|--------------------------------|--------------------------------|

 loves you...    |       |        |       |       |       |
|0-------------------------------|0-----------0-------------------|
|--------------------------------|----------------0---------------|
|------------2-------------------|------------------------0-------|
|--------------------------------|--------------------------------|

 |       |       |       |        |       |       |       |
|--------------------------------|--------------------------------|
|2-----------2-------------------|2-----------2-----------2-------|
|----------------2-----------2---|----------------2---------------|
|--------------------------------|--------------------------------|

 |       |       |       |        |       |       |       |
|--------------------------------|----------------0---------------|
|--------------------------------|--------------------------------|
|3-----------3---0-------0---2---|3-----------3-----------3-------|
|--------------------------------|--------------------------------|

 |       |       |       |        |       |       |       She
|--------------------------------|--------------------------------|
|0-----------0-------------------|0-----------0-----------0-------|
|----------------0-----------3---|----------------0---------------|
|--------------------------------|--------------------------------|

 loves you...    |       |        |       |       |       |
|--------------------------------|--------------------------------|
|2---------------------------0---|2-----------------------2-------|
|--------3-------2---2---2-------|------------3---2---------------|
|--------------------------------|--------------------------------|

 |       |       |       |        |       |       |       | with a
|--------------------------------|--------------------------------|
|----------------2---------------|----------------2---------------|
|0-------0-------------------3---|0-----------0-----------0-------|
|--------------------------------|--------------------------------|

 love    like    that    |        |       |       |       |
|--------------------------------|--------------------------------|
|--------------------------------|0-------0---------------0-------|
|3-------3-------3---------------|----------------0---------------|
|--------------------------------|--------------------------------|

 |       |       |       |        |       |       |       |   You
|0-----------0-------------------|0-----------0-------------------|
|----------------0---------------|----------------0-------2-------|
|--------------------------------|--------------------------------|
|--------------------------------|--------------------------------|

 know it's up to you     |        |       |       |       |
|0-----------0-----------0-------|--------------------------------|
|----------------0---------------|----and so on...........--------|
|--------------------------------|--------------------------------|
|--------------------------------|--------------------------------|

Other versions of She Loves You

She loves you-(Ver. 2)Bass tabs

Almost there ...

Sign in to get your own page with links to favourite songs and more. You are just one click away...

Login with Facebook Login with Google