Search tabs and chords

Search for song, artist or band

Log in

One click and you are in

Login with Facebook Login with Google

Why sign up and log in

Guitar Tabs Explorer
The Beatles bass tabs for Roll over beethoven

Bass tabs

Roll Over Beethoven
This version by The Beatles featured on their 2nd album With The Beatles
In 1963. Bass performance Paul McCartney.

Intro:
G|--------------|---------------------------------------------------------|
D|-GUITAR START-|-5----------5-------------4--7--4----4--7--4---5---------|
A|--------------|---7--4--7----7--4--7---5----------5-------------7--4--7-|
E|--------------|---------------------------------------------------------|

G|------------------------------------|
D|-7-------------4--7--4---7--7--7--7-|
A|---9--6--9---5----------------------|
E|------------------------------------|

Verses 1,2 & 3:
G|---------------------------------------------------------------------|
D|---4--7--4---5-------------4--7--4----4--7--4---5----------5---------|
A|-5-------------7--4--7---5----------5-------------7--4--7----7--4--7-|
E|---------------------------------------------------------------------|

G|------------------------------------------------------------------------|
D|---4--7--4----4--7--4----5-----------7-------------4--7--4---7--7--7--7-|
A|-5----------5--------------7--4--7-----9--6--9---5----------------------|
E|------------------------------------------------------------------------|

Bridge:
G|------------------------------------------------------------------------|
D|-----------------------------------------------------------4h5--5--5--5-|
A|-4h5--5--5--5---4h5--5--5--5---4h5--5--5--5---4h5--5--5--5--------------|
E|------------------------------------------------------------------------|

G|----------------------------------------------------------------------|
D|-4h5--5--5--5-----------------------------4h5--5--5--5---6h7--7--7--7-|
A|--------------4h5--5--5--5---4h5--5--5--5-----------------------------|
E|----------------------------------------------------------------------|

G|--------------------------|
D|--------------6h7--5--4---|
A|-4h5--5--5--5-----------7-|
E|--------------------------|

Interlude:
G|---------------------------------------------------------------------|
D|---4--7--4---5-------------4--7--4----4--7--4---5----------5---------|
A|-5-------------7--4--7---5----------5-------------7--4--7----7--4--7-|
E|---------------------------------------------------------------------|

G|-----------------------------------------------------------------------|
D|---4--7--4----4--7--4----5-----------7-------------4--7--4---7--5--4---|
A|-5----------5--------------7--4--7-----9--6--9---5-------------------7-|
E|-----------------------------------------------------------------------|

Verses 4:
G|---------------------------------------------------------------------|
D|---4--7--4---5-------------4--7--4----4--7--4---5----------5---------|
A|-5-------------7--4--7---5----------5-------------7--4--7----7--4--7-|
E|---------------------------------------------------------------------|

G|------------------------------------------------------------------------|
D|---4--7--4----4--7--4----5-----------7-------------4--7--4---7--7--7--7-|
A|-5----------5--------------7--4--7-----9--6--9---5----------------------|
E|------------------------------------------------------------------------|

Verses 5:
G|---------------------------------------------------------------------|
D|---4--7--4---5-------------4--7--4----4--7--4---5----------5---------|
A|-5-------------7--4--7---5----------5-------------7--4--7----7--4--7-|
E|---------------------------------------------------------------------|

G|------------------------------------------------------------------------|
D|---4--7--4----4--7--4----5-----------7-------------4--7--4---7--5--4----|
A|-5----------5--------------7--4--7-----9--6--9---5-------------------7--|
E|------------------------------------------------------------------------|

Outro:
G|--------------------------------------------------------------------|
D|---4--7--4----4--7--4----4--7--4---0--2--3--4--5----------5---------|
A|-5----------5----------5-------------------------7--4--7----7--4--7-|
E|--------------------------------------------------------------------|

                                                               (END)
G|----------------------------------------------------------------|
D|---4--7--4----4--7--4---7--7--7--7--7--7--7--7----4--5--6--7----|
A|-5----------5-----------------------------------5-------------5-|
E|----------------------------------------------------------------|

Symbol h is hammer on

Almost there ...

Sign in to get your own page with links to favourite songs and more. You are just one click away...

Login with Facebook Login with Google