Search tabs and chords

Search for song, artist or band

Log in

One click and you are in

Login with Facebook Login with Google

Why sign up and log in

Guitar Tabs Explorer
The Beatles guitar tabs for Rock n roll music

Guitar tabs

Guitar  intro
         ^                         play for all the Chorus
e|----------}----------------------------------------------|
B|--3-3-3-3-}----------------------------------------------|
G|--1-1-1-1-}----------------------------------------------|
D|--2-2-2-2-}---2-2-4-2--2-2-4-2---2-2-4-2--2-2-4-2--------|
A|--2-2-2-2-}---0-0-0-0--0-0-0-0---0-0-0-0--0-0-0-0--------|
E|----------}----------------------------------------------|

e|---------------------------------------------------------|
B|---------------------------------------------------------|
G|---------------------2-2-4-2--2-2-4-2---2-2-4-2--2-2-4-2-|
D|-2-2-4-2---2-2-4-2---0-0-0-0--0-0-0-0---0-0-0-0--0-0-0-0-|
A|-0-0-0-0---0-0-0-0---------------------------------------|
E|---------------------------------------------------------|
   verse 1,2,3,4
e|----------------------------------------------------------------|
B|-3-3-3-3-3-3-3-3------------------------------------------------|
G|-1-1-1-1-1-1-1-1----------------------------------2------------2|
D|-2-2-2-2-2-2-2-2----------2----------2---0-4--4-4---0--4--4-4---|
A|-2-2-2-2-2-2-2-2-0-4--4-4---0-4--4-4----------------------------|
E|----------------------------------------------------------------|
                                ending
e:-------------------}-------------------------------------
B chord diagramBB:-3-3-3-3-3-3-3-3---}-------------------------------------
g:-1-1-1-1-1-1-1-1---}-------------------------------------
d:-2-2-2-2-2-2-2-2---}----------2-2-2----------------------
a:-2-2-2-2-2-2-2-2---}----------0-0-0----------------------
e:-------------------}--------------------------------------

this is from the complete scores book.

Almost there ...

Sign in to get your own page with links to favourite songs and more. You are just one click away...

Login with Facebook Login with Google