Search tabs and chords

Search for song, artist or band

Log in

One click and you are in

Login with Facebook Login with Google

Why sign up and log in

Guitar Tabs Explorer
The Beatles guitar tabs for Helter skelter (Ver. 2)

Guitar tabs

Album: THE BEATLES (THE WHITE ALBUM))
Tunning: Standard

Words and music by John Lennon & Paul McCartney
Gtr I (E chord diagramEE A chord diagramAA D chord diagramDD G chord diagramGG B chord diagramBB E chord diagramEE) - 'elctric w/dist'



Intro:

 4/4
  Gtr I
  E chord diagramEE  E chord diagramEE E chord diagramEE   S S S S S S S S S S S S S S S S
|----0-0-|-0-0-0-0-0-0-0-0-0-0-0-0-0-0-0-0-|
|---12s3-|-3-3-3-3-3-3-3-3-3-3-3-3-3-3-3-3-|
|--------|---------------------------------|
|--------|---------------------------------|
|--------|---------------------------------|
|--------|---------------------------------|


  S S S S S S S S S S S S S S S S   S S S S S S S S S S S S S S S S
|-0-0-0-0-0-0-0-0-0-0-0-0-0-0-0-0-|-0-0-0-0-0-0-0-0-0-0-0-0-0-0-0-0--|
|-3-3-3-3-3-3-3-3-3-3-3-3-3-3-3-3-|-2-2-2-2-2-2-2-2-2-2-2-2-2-2-2-1--|
|---------------------------------|----------------------------------|
|---------------------------------|----------------------------------|
|---------------------------------|----------------------------------|
|---------------------------------|----------------------------------|


  S S S S S S S S S S S S S S S S   E chord diagramEE E chord diagramEE E chord diagramEE E chord diagramEE E chord diagramEE E chord diagramEE E chord diagramEE E chord diagramEE
|-0-0-0-0-0-0-0-0-0-0-0-0-0-3-3-3-|-3-3-3-3-3-3-3-3-|
|-1-1-1-1-1-1-1-1-1-1-1-1-1-0-0-0-|-0-0-0-0-0-0-0-0-|
|---------------------------0-0-0-|-0-0-0-0-0-0-0-0-|
|---------------------------------|-0-0-0-0-0-0-0-0-|
|---------------------------------|-2-2-2-2-2-2-2-2-|
|---------------------------------|-3-3-3-3-3-3-3-3-|

                           Verses:
  $                     $$
  E chord diagramEE E chord diagramEE S S S S E chord diagramEE E chord diagramEE S S E chord diagramEE     S S E chord diagramEE S S E chord diagramEE S S S S +S  S E chord diagramEE  5x
|-----0-0-0-0-----0-0-0-||--0-0-0-0-0-0-0-0-0-0-(0)-0-0--||
|-----0-0-0-0-----0-0-0-||o-0-0-0-0-0-0-0-0-0-0-(0)-0-0-o||
|-----1-1-1-1-----1-1-1-||--1-1-1-1-1-1-1-1-1-1-(1)-1-1--||
|-----2-2-2-2-----2-2-2-||--2-2-2-2-2-2-2-2-2-2-(2)-2-2--||
|-----2-2-2-2-----2-2-2-||o-2-2-2-2-2-2-2-2-2-2-(2)-2-2-o||
|-0-0-0-0-0-0-0-0-0-0-0-||--0-0-0-0-0-0-0-0-0-0-(0)-0-0--||




Pre-Chorus's:

  E chord diagramEE E chord diagramEE E chord diagramEE S S S S S S +S  S E chord diagramEE   H chord diagramHH.      +S  E chord diagramEE.
|-2-2-2-2-2-2-2-2-2-(2)-2-2-|----------------|
|-0-0-0-0-0-0-0-0-0-(0)-0-0-|-2-------(2)----|
|-0-0-0-0-0-0-0-0-0-(0)-0-0-|-2-------(2)----|
|-0-0-0-0-0-0-0-0-0-(0)-0-0-|-2-------(2)----|
|-2-2-2-2-2-2-2-2-2-(2)-2-2-|-0-------(0)----|
|-3-3-3-3-3-3-3-3-3-(3)-3-3-|-------------x-|


                                  Chorus's:

  S S E chord diagramEE S S E chord diagramEE S S S S +S  S  E chord diagramEE     E chord diagramEE E chord diagramEE E chord diagramEE S S S S S S S S E chord diagramEE
|-0-0-0-0-0-0-0-0-0-0-(0)-0-----||-------------------------|
|-0-0-0-0-0-0-0-0-0-0-(0)-0-----||-------------------------|
|-1-1-1-1-1-1-1-1-1-1-(1)-1-----||-------------------------|
|-2-2-2-2-2-2-2-2-2-2-(2)-2-----||-2-2-4-4-0-5-4-2---------|
|-2-2-2-2-2-2-2-2-2-2-(2)-2-----||-0-0-0-0---------5-4-2-0-|
|-0-0-0-0-0-0-0-0-0-0-(0)-0-12-||-------------------------|


                                           To Coda
  E chord diagramEE E chord diagramEE E chord diagramEE S S S S S S S S E chord diagramEE   E chord diagramEE E chord diagramEE E chord diagramEE S S S S S S S S E chord diagramEE
|-------------------------|-------------------------|
|-------------------------|-------------------------|
|-------------------------|-------------------------|
|-------------------------|-2-2-4-4-0-5-4-2---------|
|-2-2-4-4-0-5-4-2---------|-0-0-0-0---------5-4-2-0-|
|-0-0-0-0---------5-4-2-0-|-------------------------|


  E chord diagramEE S S     S    S      S      S    S    S    S      S      S    S    S    +S
|------------------------------------------------------------------------------|
|---5-5b5.5-5pb6-5pb6.5-5pb6.5-5pb7-5pb7-5pb7-5pb7.5-5pb7.5-5pb8-5pb8-5pb8r(5)-|
|------------------------------------------------------------------------------|
|------------------------------------------------------------------------------|
|------------------------------------------------------------------------------|
|-0----------------------------------------------------------------------------|


               D chord diagramDD.S.
  H chord diagramHH    +E  S S +Q
|-------------------||
|-------------------||
|-------------------||
|-------------------||
|-------------------||
|-0----(0)-0-0-(0)--||


                    Guitar Solo:

  H chord diagramHH     E chord diagramEE S  S Q      S      +E. Q  Q  S  a      +E.
|-----------------||-15b17==(15)---------15b17==(15)-|
|------12---12----||---------------------------------|
|------13---13----||---------------------------------|
|-----------------||---------------------------------|
|-----------------||---------------------------------|
|-----------------||---------------------------------|


   ~~
   Q  Q   a      +S   +E   S       +S   +S   S  S
|-15--------------------------------------------------|
|--------15b17==(15)r(15)----------------------12b14==|
|-------------------------12pb14==(12)r(12)-----------|
|-------------------------------------------14--------|
|-----------------------------------------------------|
|-----------------------------------------------------|


                                                         ~~
   +E  E chord diagramEE Q   a      +E   +S   a      +S   +S   +S   E chord diagramEE    H chord diagramHH    H chord diagramHH
|-----------------------------------------------------|------------||
|-(12)------------------------------------------------|------------||
|-----------12b14==(12)r(12)-15b17==(15)-(15)r(15)-12-|------------||
|-----------------------------------------------------|-14---------||
|-----------------------------------------------------|------------||
|-----------------------------------------------------|------------||


Bridge:

  S S S S S S S S S S S S S S S S   S S S S S S S S S S S S S S S S
|-0-0-0-0-0-0-0-0-0-0-0-0-0-0-0-0-|-0-0-0-0-0-0-0-0-0-0-0-0-0-0-0-0--|
|-3-3-3-3-3-3-3-3-3-3-3-3-3-3-3-3-|-2-2-2-2-2-2-2-2-2-2-2-2-2-2-2-1--|
|---------------------------------|----------------------------------|
|---------------------------------|----------------------------------|
|---------------------------------|----------------------------------|
|---------------------------------|----------------------------------|


                                                              D chord diagramDD.S.S. al Coda
  S S S S S S S S S S S S S S S S   E chord diagramEE E chord diagramEE E chord diagramEE E chord diagramEE E chord diagramEE E chord diagramEE E chord diagramEE E chord diagramEE   E chord diagramEE E chord diagramEE S S S S E chord diagramEE E chord diagramEE S S E chord diagramEE
|-0-0-0-0-0-0-0-0-0-0-0-0-0-3-3-3-|-3-3-3-3-3-3-3-3-|-----0-0-0-0-----0-0-0--||
|-1-1-1-1-1-1-1-1-1-1-1-1-1-0-0-0-|-0-0-0-0-0-0-0-0-|-----0-0-0-0-----0-0-0--||
|---------------------------0-0-0-|-0-0-0-0-0-0-0-0-|-----1-1-1-1-----1-1-1--||
|---------------------------------|-0-0-0-0-0-0-0-0-|-----2-2-2-2-----2-2-2--||
|---------------------------------|-2-2-2-2-2-2-2-2-|-----2-2-2-2-----2-2-2--||
|---------------------------------|-3-3-3-3-3-3-3-3-|-0-0-0-0-0-0-0-0-0-0-0--||


             Outro:
  &
  W           +W           Q.   E chord diagramEE S S S S S S E chord diagramEE
|----------||------------|----------------------|
|----------||------------|----------------------|
|----------||------------|----------------------|
|----------||------------|----------------------|
|----------||------------|--------5-4-2---------|
|-0--------||-(0)--------|-0------------5-4-2-0-|


    +Q   Q  S S S S S S E chord diagramEE         +E  E chord diagramEE S S S S E chord diagramEE E chord diagramEE S S S S
||-------------------------||-||--------0-0-0-0-----0-0-0-0--||
||o-----------------------o||-||o-------3-3-3-3-----3-3-3-3-o||
||-------------------------||-||--------1-1-1-1-----1-1-1-1--||
||-------------------------||-||--------0-0-0-0-----0-0-0-0--||
||o---------5-4-2---------o||-||o-------2-2-2-2-----2-2-2-2-o||
||--(0)-----------5-4-2-0--||-||--(0)-0-0-0-0-0-0-0-0-0-0-0--||

Other versions of Helter Skelter

Helter skelterChords
Helter skelter (Ver. 2)Chords
Helter skelterTabs

Almost there ...

Sign in to get your own page with links to favourite songs and more. You are just one click away...

Login with Facebook Login with Google