Log in

One click and you are in

Login with Facebook Login with Google

Why sign up and log in

Guitar Tabs Explorer
Beabadoobee bass tabs for If you want to

Bass tabs with lyrics

Tuning: Standard (E A D G)


Verse 1:
If you wanna take me
Go ahead and try my head
Experience is nothing compared to
The sleep paralysis in my bed
If you wanna love me
Try to get inside my brain
Experience is nothing compared to
The nights I'm always up so late

Pre-Chorus:
Bed bugs in my mind
Keep them all alive
Insomnia creeps at night
G|--------------|-----------------|------------------|--------------------|
D|--------------|-----------------|------------------|--------------------|
A|--------------|-----------------|------------------|--------------------|
E|--5--5--5--5--|--7--7--7--10----|--10--10--10--10--|--10--10--10--10----| x11


Sleep paralysis till I die
Die
G|--------------|--------------|------------------|
D|--------------|--------------|------------------|
A|--------------|--------------|------------------|
E|--5----7--7-7-|-7--7--7--7---|--7--7--7--7--7---| x2


Chorus:
'Cause if you want, you could stay with me in my bed
If you want to, only if you want to
If you want, you could go ahead and fix my head
If you want to, only if you want to
G|--------------|--------------|----------------------|----------------------|
D|--------------|--------------|----------------------|----------------------|
A|--------------|--------------|----------------------|----------------------|
E|--5--55--555--|--7--77--777--|--10--10-10--10-10-10-|--10--10-10--10-10-10-| x11

Post-Chorus:
If you wanted to
If you try to
G|--------------|--------------|
D|--------------|--------------|
A|--------------|--------------|
E|--5--5--7-7---|--10----------| x4


Verse 2:
Wishing I still had my dreams
Late night started, take up space
'Cause every time I try to remember
Lack of sleep takes half my brain

Pre-Chorus:
Bed bugs in my mind
Keep them all alive
Insomnia creeps at night
G|--------------|-----------------|------------------|--------------------|
D|--------------|-----------------|------------------|--------------------|
A|--------------|-----------------|------------------|--------------------|
E|--5--5--5--5--|--7--7--7--10----|--10--10--10--10--|--10--10--10--10----| x11


Sleep paralysis till I die
Die
G|--------------|--------------|------------------|
D|--------------|--------------|------------------|
A|--------------|--------------|------------------|
E|--5----7--7-7-|-7--7--7--7---|--7--7--7--7--7---| x2


Chorus:

'Cause if you want, you could stay with me in my bed
If you want to, only if you want to
If you want, you could go ahead and fix my head
If you want to, only if you want to
Use some pesticides and throw it in my brain
If you want to, only if you want to
Bed bugs keep me up at night and I'm going insane
If they try to, only if they try to
G|--------------|--------------|----------------------|----------------------|
D|--------------|--------------|----------------------|----------------------|
A|--------------|--------------|----------------------|----------------------|
E|--5--55--555--|--7--77--777--|--10--10-10--10-10-10-|--10--10-10--10-10-10-| x11


Post-Chorus:
If you wanted to
If you try to
G|--------------|--------------|
D|--------------|--------------|
A|--------------|--------------|
E|--5--5--7-7---|--10----------| x4


Chorus:
'Cause if you want, you could stay with me in my bed
If you want to, only if you want to
If you want, you could go ahead and fix my head
If you want to, only if you want to
Use some pesticides and throw it in my brain
If you want to, only if you want to
Bed bugs keep me up at night and I'm going insane
If they try to, only if they try to
G|--------------|--------------|----------------------|----------------------|
D|--------------|--------------|----------------------|----------------------|
A|--------------|--------------|----------------------|----------------------|
E|--5--55--555--|--7--77--777--|--10--10-10--10-10-10-|--10--10-10--10-10-10-| x11

Almost there ...

Sign in to get your own page with links to favourite songs and more. You are just one click away...

Login with Facebook Login with Google