Search tabs and chords

Search for song, artist or band

Log in

One click and you are in

Login with Facebook Login with Google

Why sign up and log in

Guitar Tabs Explorer
Bastille guitar tabs for These streets acoustic

Guitar tabs

0:18 Intro

e|---------------------------------------------|
b|----1----1----0---0----1----1----1p0---------|
g|---2----2----0---0----2----2----2---2p0------|
d|--3----3----0---0----2----2----2--------3p2p0|
a|-3----3------------0----0----0---------------|
e|----------3----3-----------------------------| x2
0:28 Verse

"These streets are yours..."

e|-----------------------------------|
b|----1---1---1---1---1---1----1---1-|
g|---2-2-2---2-2-2---0-0-0----0-0-0--|
d|--3---3---3---3---2---2----2---2---|
a|-3-------3-------3--------3--------|
e|-----------------------------------|

0:32
"I don't want..."
e|----------------------------------------|
b|----1---1---0-----0---1---1---1----1----|
g|---2---2---0-----0---2---2---2----2-----|
d|--3---3---0-----0---2---2---2----2------|
a|-3---3-------------0---0---0----0-------|
e|---------3----3-------------------------|

0:38

"They pull me back..."

e|-----------------------------------|
b|----1---1---1---1---1---1----1---1-|
g|---2-2-2---2-2-2---0-0-0----0-0-0--|
d|--3---3---3---3---2---2----2---2---|
a|-3-------3-------3--------3--------|
e|-----------------------------------|

0:42
"To the memories..."

e|----------------------------------------|
b|----1---1---0-----0---1---1---1----1----|
g|---2---2---0-----0---2---2---2----2-----|
d|--3---3---0-----0---2---2---2----2------|
a|-3---3-------------0---0---0----0-------|
e|---------3----3-------------------------|

0:48
"Oh we have paved..."

e|----------------------------------|
b|-1-0-------1---1---0----0---1---1-|
g|----2-0---2---2---0----0---2---2--|
d|---------3---3---2----3---2---2---|
a|--------3---3------------0---0----|
e|----------------3----3------------|

0:52
"With moments of..."

e|----------------------------------|
b|-1-0-------1---1---0----0---1---1-|
g|----2-0---2---2---0----0---2---2--|
d|---------3---3---2----3---2---2---|
a|--------3---3------------0---0----|
e|----------------3----3------------|

Chorus is just strumming, so I'll put the chords here in place of a tab with the lyrics.. F chord diagramFF, C chord diagramCC Am chord diagramAmAm, G chord diagramGG

0:58
F chord diagramFF          C chord diagramCC            Am chord diagramAmAm            G chord diagramGG
"But even if we won't admit it to ourselves we'll
F chord diagramFF     C chord diagramCC                      Am chord diagramAmAm              G chord diagramGG
walk upon these streets and think of little else so
F chord diagramFF                C chord diagramCC        Am chord diagramAmAm    G chord diagramGG
I won't show my face here anymore
F chord diagramFF                C chord diagramCC        Am chord diagramAmAm      G chord diagramGG
I won't show my face here anymore..."


1:20

"These streets are yours..."

e|-----------------------------------|
b|----1---1---1---1---1---1----1---1-|
g|---2-2-2---2-2-2---0-0-0----0-0-0--|
d|--3---3---3---3---2---2----2---2---|
a|-3-------3-------3--------3--------|
e|-----------------------------------|

1:26

"In my mind it's like..."
e|----------------------------------------|
b|----1---1---0-----0---1---1---1----1----|
g|---2---2---0-----0---2---2---2----2-----|
d|--3---3---0-----0---2---2---2----2------|
a|-3---3-------------0---0---0----0-------|
e|---------3----3-------------------------|

1:30

"And passing through..."


e|------------------------------------------------|
b|-1p0-------------1---1---1---1---1---1----1---1-|
g|----2p0---------2-2-2---2-2-2---0-0-0----0-0-0--|
d|--------3p2p0--3---3---3---3---2---2----2---2---|
a|--------------3-------3-------3--------3--------|
e|------------------------------------------------|


1:36

"In the shapes..."

e|----------------------------------------|
b|----1---1---0-----0---1---1---1----1----|
g|---2---2---0-----0---2---2---2----2-----|
d|--3---3---0-----0---2---2---2----2------|
a|-3---3-------------0---0---0----0-------|
e|---------3----3-------------------------|


1:40

"Oh we have stained..."


e|------------------------------------------------|
b|-1p0--------1---1---0-----0---1---1---1----1----|
g|----2p0----2---2---0-----0---2---2---2----2-----|
d|----------3---3---0-----0---2---2---2----2------|
a|---------3---3-------------0---0---0----0-------|
e|-----------------3----3-------------------------|

1:46

"With our mi-stakes..."

e|------------------------------------------------|
b|-1p0--------1---1---0-----0---1---1---1----1----|
g|----2p0----2---2---0-----0---2---2---2----2-----|
d|----------3---3---0-----0---2---2---2----2------|
a|---------3---3-------------0---0---0----0-------|
e|-----------------3----3-------------------------|


1:52

F chord diagramFF          C chord diagramCC            Am chord diagramAmAm            G chord diagramGG
"But even if we won't admit it to ourselves we'll
F chord diagramFF     C chord diagramCC                      Am chord diagramAmAm              G chord diagramGG
walk upon these streets and think of little else so
F chord diagramFF                C chord diagramCC        Am chord diagramAmAm    G chord diagramGG
I won't show my face here anymore
F chord diagramFF                C chord diagramCC        Am chord diagramAmAm      G chord diagramGG
I won't show my face here anymore..."


2:14

e|---------------------------------------------|
b|----1----1----0---0----1----1----1p0---------|
g|---2----2----0---0----2----2----2---2p0------|
d|--3----3----0---0----2----2----2--------3p2p0|
a|-3----3------------0----0----0---------------|
e|----------3----3-----------------------------| x2

2:26

"All that's left behind..."

e|----------------------------------------|
b|----1---1---0-----0---1---1---1----1----|
g|---2---2---0-----0---2---2---2----2-----|
d|--3---3---0-----0---2---2---2----2------|
a|-3---3-------------0---0---0----0-------|
e|---------3----3-------------------------| x4


2:46

F chord diagramFF          C chord diagramCC            Am chord diagramAmAm            G chord diagramGG
"But even if we won't admit it to ourselves we'll
F chord diagramFF     C chord diagramCC                      Am chord diagramAmAm              G chord diagramGG
walk upon these streets and think of little else so
F chord diagramFF                C chord diagramCC        Am chord diagramAmAm    G chord diagramGG
I won't show my face here anymore
F chord diagramFF                C chord diagramCC        Am chord diagramAmAm      G chord diagramGG
I won't show my face here anymore
F chord diagramFF                C chord diagramCC        Am chord diagramAmAm    G chord diagramGG
I won't show my face here anymore
F chord diagramFF                C chord diagramCC        Am chord diagramAmAm      G chord diagramGG
I won't show my face here anymore..."

Other versions of These Streets Acoustic

These streetsChords

Almost there ...

Sign in to get your own page with links to favourite songs and more. You are just one click away...

Login with Facebook Login with Google