Search tabs and chords

Search for song, artist or band

Log in

One click and you are in

Login with Facebook Login with Google

Why sign up and log in

Guitar Tabs Explorer
Archive guitar tabs for Wrong

Guitar tabs

Band: Archive
Album: Noise
Year: 2004
Tabber: beranger80@hotmail.com

Part A chord diagramAA (0:00)

e-----------------------------------|----------4---------------4--------|
b----------4---------------4--------|--------4---4-----------4---4------|
g--------5---5-----------5---5------|------6-------6-------6-------6----|
d------6-------6-------6-------6----|----6-----------6---6-----------6--|  x3
a----6-----------6---6-----------6--|--4---------------4----------------|
E chord diagramEE--4---------------4----------------|-----------------------------------|
   Why can't I see it's all not wrong?
   Why can't you be here again?
   Still don't believe I know you're gone



Part B chord diagramBB (0:38)

e----------6---------------6--------|-------------------------------------|
b--------6---6-----------6---6------|----------4---------------4----------|
g------8-------8-------8-------8----|--------5---5-----------5---5--------|
d----8-----------8---8-----------6--|------6-------6-------6-------6------|
a--6---------------6----------------|----6-----------6---6-----------6----|
E chord diagramEE-----------------------------------|--4---------------4---------------4--|
  I miss your love                     I miss your love

Almost there ...

Sign in to get your own page with links to favourite songs and more. You are just one click away...

Login with Facebook Login with Google