Search tabs and chords

Search for song, artist or band

Log in

One click and you are in

Login with Facebook Login with Google

Why sign up and log in

Guitar Tabs Explorer
Archive guitar tabs for Noise acoustic

Guitar tabs with lyrics

Album:      Noise Unplugged
Tabbed by:  Wiktor R. Ko³owiecki
E chord diagramEE-mail:     grunge16@o2.pl

Intro/Verse1:

Guitar 1:
E|---------------------------|
B|--------0------------------|
G|----------0-------0-----0--|
D|------2-----2---2-----2----|
A|----2---------4-----3------|
E|--0------------------------|

Stay in your coma, in your own frustration
Lips sinking haircut, blow me away

Chorus1:

Guitar 2:
E|--0-0-0-0-0-0-0-0-0-0-0-0--|
B|--1-1-1-1-1-1-1-1-1-1-1-1--|
G|--2-2-2-2-2-2-2-2-2-2-2-2--|
D|--2-2-2-2-2-2-2-2-2-2-2-2--|
A|--0-0-0-0-0-0-0-0-0-0-0-0--|
E|--x-x-x-x-x-x-x-x-x-x-x-x--|

Cause I'd rather be in this noise
Suffocate in this noise colder
It means so --

Guitar 1:
E|---------------------------|
B|--------0------------------|
G|----------0-------0-----0--|
D|------2-----2---2-----2----|
A|----2---------4-----3------|
E|--0------------------------|

Guitar 2:
E|--0------------------------|
B|--0------------------------| NOTE: Strum
G|--0------------------------| this chord
D|--2------------------------| arpeggio
A|--2------------------------|
E|--0------------------------|

-- much to me

Bridge: As above

Verse2:

Guitar 1/2:
E|-----------------------------| NOTE: I'm not sure but it sounds quite
B|-----------------------------| similar; from this moment I don't know
G|--0-0-0-0-0-0-0-0-0-0-0-0----| what's going on with the other guitar,
D|--2-2-2-2-2-2-2-2-2-2-2-2----| probably she is playing the same riff
A|--2-2-2-2-2-2-4-4-4-3-3-3----|
E|-----------------------------|

Nostalgia makes you living so easy
Ludites make it easy for me

Chorus2:

Guitar 1/2:
E|--0-0-0-0-0-0-0-0-0-0-0-0--|
B|--1-1-1-1-1-1-1-1-1-1-1-1--|
G|--2-2-2-2-2-2-2-2-2-2-2-2--|
D|--2-2-2-2-2-2-2-2-2-2-2-2--|
A|--0-0-0-0-0-0-0-0-0-0-0-0--|
E|--x-x-x-x-x-x-x-x-x-x-x-x--|

Cause I'd rather be in this noise
Suffocate in this noise colder
It means so --

Guitar 1/2:
E|--0-0-0-0-0-0----------------|
B|--0-0-0-0-0-0----------------|
G|--0-0-0-0-0-0-0-0-0-0-0-0----|
D|--2-2-2-2-2-2-2-2-2-2-2-2----|
A|--2-2-2-2-2-2-4-4-4-3-3-3----|
E|--0-0-0-0-0-0----------------|

-- much to me

To meeeeeeeeeeee!
To meeeeeeeeeeee!

Cause I'd rather be in this noise
Cause I'd rather be in this noise

Repetition baby, machine is taking over
Dance with me baby, the future is here

Scientific baby, waltz hand in hand
Scientific baby, technological man

Guitar 1/2:
E|--0-0-0-0-0-0-0-0-0-0-0-0--|
B|--1-1-1-1-1-1-1-1-1-1-1-1--|
G|--2-2-2-2-2-2-2-2-2-2-2-2--|
D|--2-2-2-2-2-2-2-2-2-2-2-2--|
A|--0-0-0-0-0-0-0-0-0-0-0-0--|
E|--x-x-x-x-x-x-x-x-x-x-x-x--|

Would you rather be in this noise
celebrate in this noise colder
It means so --

Guitar 1/2:
E|--0-0-0-0-0-0----------------|
B|--0-0-0-0-0-0----------------|
G|--0-0-0-0-0-0-0-0-0-0-0-0----|
D|--2-2-2-2-2-2-2-2-2-2-2-2----|
A|--2-2-2-2-2-2-4-4-4-3-3-3----|
E|--0-0-0-0-0-0----------------|

-- much to me


    Well, that's all. This is my first own tab, I decided to make it cause I've been
for it very long with no results. If there's something incorrect [I know there is :)]
e-mail me: grunge16@o2.pl

    PS: Sorry for my English, there must be a lot of mistakes :)

Almost there ...

Sign in to get your own page with links to favourite songs and more. You are just one click away...

Login with Facebook Login with Google