Search tabs and chords

Search for song, artist or band

Log in

One click and you are in

Login with Facebook Login with Google

Why sign up and log in

Guitar Tabs Explorer
Archive bass tabs for Collapse collide

Bass tabs

No Bass here!
G||--------------||
D||o------------o||
A||o------------o|| ? 87
E||--------------||
B||--------------||

   Cycle 1 (Bass comes in on 04:23 of the song)
G|----------------------------|----------------------------|
D|----------------------------|----------------------------|
A|----------------------------|--8-------------------------|
E|-----------------------8----|-----------------------8----|
B|----------------------------|----------------------------|

G|----------------------------|----------------------------|
D|----------------------------|----------------------------|
A|----------------------------|--8-------------------------|
E|-----------------------8----|-----------------------8----|
B|--6-------------------------|----------------------------|

G|----------------------------|----------------------------|
D|----------------------------|----------------------------|
A|----------------------------|--4-------------------------|
E|-----------------------4----|-----------------------4----|
B|--6-------------------------|----------------------------|

G|----------------------------|----------------------------|
D|----------------------------|----------------------------|
A|----------------------------|--4-------------------------|
E|-----------------------4----|-----------------------4----|
B|--2-------------------------|----------------------------|

                                Cycle 2
G|----------------------------|----------------------------|
D|----------------------------|----------------------------|
A|----------------------------|--8-------------------------|
E|-----------------------8----|-----------------------8----|
B|--2-------------------------|----------------------------|

G|----------------------------|----------------------------|
D|----------------------------|----------------------------|
A|----------------------------|--8-------------------------|
E|-----------------------8----|-----------------------8----|
B|--6-------------------------|----------------------------|


G|----------------------------|----------------------------|
D|----------------------------|----------------------------|
A|----------------------------|--4-------------------------|
E|-----------------------4----|-----------------------4----|
B|--6-------------------------|----------------------------|


G|----------------------------|----------------------------|
D|----------------------------|----------------------------|
A|----------------------------|--4-------------------------|
E|-----------------------4----|-----------------------4----|
B|--2-------------------------|----------------------------|

                               Cycle 3
G|----------------------------|----------------------------|
D|----------------------------|----------------------------|
A|----------------------------|--8-------------------------|
E|-----------------------8----|-----------------------8----|
B|--2-------------------------|----------------------------|


G|----------------------------|----------------------------|
D|----------------------------|----------------------------|
A|----------------------------|--8-------------------------|
E|-----------------------8----|-----------------------8----|
B|--6-------------------------|----------------------------|


G|----------------------------|----------------------------|
D|----------------------------|----------------------------|
A|----------------------------|--4-------------------------|
E|-----------------------4----|-----------------------4----|
B|--6-------------------------|----------------------------|


G|----------------------------|----------------------------|
D|----------------------------|----------------------------|
A|----------------------------|--4-------------------------|
E|-----------------------4----|-----------------------4----|
B|--2-------------------------|----------------------------|

                                Chorus 1.1 (They're correcting...)
G|----------------------------|----------------------------|
D|----------------------------|----------------------------|
A|----------------------------|--8-------------------------|
E|-----------------------8----|-----------------------8----|
B|--2-------------------------|----------------------------|


G|----------------------------|----------------------------|
D|----------------------------|----------------------------|
A|--8-------------------------|--8-------------------------|
E|-----------------------8----|-----------------------8----|
B|----------------------------|----------------------------|


G|----------------------------|----------------------------|
D|----------------------------|----------------------------|
A|----------------------------|--4-------------------------|
E|-----------------------4----|-----------------------4----|
B|--6-------------------------|----------------------------|


G|----------------------------|----------------------------|
D|----------------------------|----------------------------|
A|--4-------------------------|--4-------------------------|
E|-----------------------4----|-----------------------4----|
B|----------------------------|----------------------------|

                                Chorus 1.2 (They're rejecting...)
G|----------------------------|----------------------------|
D|----------------------------|----------------------------|
A|----------------------------|--8-------------------------|
E|-----------------------8----|-----------------------8----|
B|--2-------------------------|----------------------------|

G|----------------------------|----------------------------|
D|----------------------------|----------------------------|
A|--8-------------------------|--8-------------------------|
E|-----------------------8----|-----------------------8----|
B|----------------------------|----------------------------|


G|----------------------------|----------------------------|
D|----------------------------|----------------------------|
A|----------------------------|--4-------------------------|
E|-----------------------4----|-----------------------4----|
B|--6-------------------------|----------------------------|

                                                             Now we're all
G|----------------------------|----------------------------|-------|
D|----------------------------|----------------------------|-------|
A|--4-------------------------|--4-------------------------|-------|
E|-----------------------4----|-----------------------4----|-------|
B|----------------------------|----------------------------|--2----|

   After Chorus 1 (stoned...)
G|----------------------------|----------------------------|
D|----------------------------|----------------------------|
A|--1-----------1.-1----------|--1-----------1.-1----------|
E|----------------------------|----------------------------|
B|----------------------------|----------------------------|


G|----------------------------|----------------------------|
D|----------------------------|----------------------------|
A|--6-----------6.-6----------|--6-----------6.-6--4-------|
E|----------------------------|----------------------------|
B|----------------------------|----------------------------|


G|----------------------------|----------------------------|-------|
D|----------------------------|----------------------------|-------|
A|--3-----------3.-3----------|--3-----------3.-3----------|--8----|
E|----------------------------|----------------------------|-------|
B|----------------------------|----------------------------|-------|

   No Bass here!
G||-----||
D||o---o||
A||o---o|| ? 9
E||-----||
B||-----||

  After Silence
G|----------------------------|-------|-------|----------------------------|
D|----------------------------|-------|-------|----------------------------|
A|--4-------------------------|--4----|--4----|--4--------------------6----|
E|-----------------------4----|-------|-------|----------------------------|
B|----------------------------|-------|-------|----------------------------|

  Pre-Chorus
G|----------------------------|-------|----------------------------|
D|----------------------------|-------|----------------------------|
A|--8-------------------------|--8----|--8--------------------6----|
E|-----------------------8----|-------|----------------------------|
B|----------------------------|-------|----------------------------|


G|----------------|----------------------------|-------|
D|----------------|----------------------------|-------|
A|--8--------6----|--4-------------------------|--4----|
E|----------------|-----------------------4----|-------|
B|----------------|----------------------------|-------|


G|----------------------------|----------------------------|
D|----------------------------|----------------------------|
A|--4-------------------------|--4-------------------------|
E|-----------------------4----|-----------------------8----|
B|----------------------------|----------------------------|

   Chorus 2.1 (They're correcting...)
G|----------------------------|----------------------------|
D|----------------------------|----------------------------|
A|--8--8--8--8--8--8--8--8----|--8--8--8--8--8--8--8--6----|
E|----------------------------|----------------------------|
B|----------------------------|----------------------------|


G|----------------------------|----------------------------|
D|----------------------------|----------------------------|
A|--8--8--8--8--8--8--8--8----|--8--8--8--8--8--8--11-11---|
E|----------------------------|----------------------------|
B|----------------------------|----------------------------|


G|----------------------------|----------------------------|
D|----------------------------|----------------------------|
A|--4--4--4--4--4--4--4--4----|--4--4--4--4--4--4--4-------|
E|----------------------------|-----------------------4----|
B|----------------------------|----------------------------|


G|----------------------------|----------------------------|
D|----------------------------|----------------------------|
A|--4--4--4--4--4--4--4--4----|--4--4--4--4--4--4--4--6----|
E|----------------------------|----------------------------|
B|----------------------------|----------------------------|

   Chorus 2.2 (They're rejecting...)
G|----------------------------|----------------------------|
D|----------------------------|-----------------------10---|
A|--8--8--8--8--8--8--8-------|--8--8--8--8--8--8--8-------|
E|-----------------------8----|----------------------------|
B|----------------------------|----------------------------|

G|----------------------------|----------------------------|
D|----------------------------|----------------------------|
A|--8--8--8--8--8--8--8-------|--8--8--8--8--8--8--6--6----|
E|-----------------------8----|----------------------------|
B|----------------------------|----------------------------|

G|----------------------------|----------------------------|
D|----------------------------|----------------------------|
A|--4--4--4--4--4--4--4--4----|--4--4--4--4--4--4--4-------|
E|----------------------------|-----------------------4----|
B|----------------------------|----------------------------|

                                Now we're all
G|----------------------------|----------------------------|
D|----------------------------|----------------------------|
A|--4--4--4--4--4--4--4--4----|--4--4--4--4--4--4--3--3----|
E|----------------------------|----------------------------|
B|----------------------------|----------------------------|

   After Chorus 2 (stoned...)
G|----------------------------|----------------------------|
D|----------------------------|----------------------------|
A|--1--1--1--1--1--1--1--1----|--1--1--1--1--1--1--1--1----|
E|----------------------------|----------------------------|
B|----------------------------|----------------------------|


G|----------------------------|----------------------------|
D|----------------------------|----------------------------|
A|--6--6--6--6--6--6--6--6----|--6--6--6--6--6--6--4--4----|
E|----------------------------|----------------------------|
B|----------------------------|----------------------------|


G|----------------------------|----------------------------|----------|----||
D|----------------------------|----------------------------|----------|----||
A|--3--3--3--3--3--3--3--3----|--3--3--3--3--3--3--3-------|--1-------|----||
E|----------------------------|----------------------------|----------|----||
B|----------------------------|----------------------------|----------|----||

Almost there ...

Sign in to get your own page with links to favourite songs and more. You are just one click away...

Login with Facebook Login with Google