Search tabs and chords

Search for song, artist or band

Log in

One click and you are in

Login with Facebook Login with Google

Why sign up and log in

Guitar Tabs Explorer
Archive guitar tabs for Clones

Guitar tabs

Band: Archive
Album: Controlling Crowds
Year: 2009
Tabber: beranger80@hotmail.com

Intro 1 (0:00)


e-------------------|
b-------------------|
g-------------------|
d-------------------|
a----3---3---3---3--|
e--1---1---1---1----|



Intro 2 (0:30)

e----------------|--------------|---------------|---------------|
b-------6-6---6--|-----8-8---8--|------6-6---6--|------6-6---6--|
g----------------|--------------|---------------|---------------|
d---3-3-----3----|-5-5-----5----|--5-5-----5----|--3-3-----3----|
a----------------|--------------|---------------|---------------|
e----------------|--------------|---------------|---------------|
               x4             x4              x4              x4



Verse (0:55)

e----------------|--------------|---------------|---------------|
b-------6-6---6--|-----8-8---8--|------6-6---6--|------6-6---6--|
g----------------|--------------|---------------|---------------|
d---3-3-----3----|-5-5-----5----|--5-5-----5----|--3-3-----3----| x2
a----------------|--------------|---------------|---------------|
e----------------|--------------|---------------|---------------|
               x4             x4              x4              x4


Prechorus (1:43)

F chord diagramFF G# chord diagramG#G# F chord diagramFF G# chord diagramG#G# Bb chord diagramBbBb



Chorus (2:15)

F chord diagramFF G# chord diagramG#G# F chord diagramFF



Bridge (2:31)

e------------------------------------|
b------------------------------------|
g------------------------------------|
d-----------------------------8-8-8--| x6
a--8-8-8-8-8-11-11-11-8-8-8-8--------|
e------------------------------------|



Break (3:06)

F chord diagramFF



Bridge 2 (3:12)
e-------------------------------------|
b-------------------------------------|
g-------------------------------------|
d------------------------------8-8-8--|
a--8-8-8-8-8-11-11-11-8-8----8--------|
e-------------------------11----------|



Break 2 (3:18)

e-------------------|-------------------|
b-------------------|-------------------|
g--------14-----14--|--------12-----12--|
d--15-15-----15-----|--13-13-----13-----| x2
a-------------------|-------------------|
e-------------------|-------------------|
                  x4                  x4



Bridge 3 (3:42)

e------------------------------------|
b------------------------------------|
g------------------------------------|
d-----------------------------8-8-8--| x8
a--8-8-8-8-8-11-11-11-8-8-8-8--------|
e------------------------------------|



Outro (4:30)

e---------------|---------------|---------------|---------------|
b---------------|---------------|---------------|---------------|
g--15----15-17--|--15----12-15--|--17----15-17--|--15----12-15--|
d-----15--------|-----13--------|-----15--------|-----13--------|
a---------------|---------------|---------------|---------------|
e---------------|---------------|---------------|---------------|
             x11             x11             x11             x11

Almost there ...

Sign in to get your own page with links to favourite songs and more. You are just one click away...

Login with Facebook Login with Google