Log in

One click and you are in

Login with Facebook Login with Google

Why sign up and log in

Guitar Tabs Explorer
The Animals bass tabs for Dont let me be misunderstood

Don't Let Me Be Misunderstood bass tab by The Animals

The Animals bass tabs for Dont let me be misunderstood

Bass tabs

Tuning: Standard (E A D G)

Difficulty: Novice
Intro:
G|--------------------------|
D|-9--9--x-------9--9--x----|
A|----------7-------------7-|
E|--------------------------|


Verse 1:                (Play This Bit x2)
G|------------------------------------------------------|
D|-9--9---9-9----7--7---7-7----5--5---5-5----4--4---4-4-|
A|------------------------------------------------------|
E|------------------------------------------------------|


Chorus 1:
G|-----------------------------------------------------------------|
D|-------7-----------4-------------BREAK---9--9--x------9--9--x----|
A|-5---5---5-4-2---2---2-0--------------------------7------------7-|
E|-------------------------3----3----------------------------------|


Verse 2:                (Play This Bit x2)
G|------------------------------------------------------|
D|-9--9---9-9----7--7---7-7----5--5---5-5----4--4---4-4-|
A|------------------------------------------------------|
E|------------------------------------------------------|


Chorus 2:
G|----------------------------------------------|
D|-------7-----------4-------------BREAK---9--9-|
A|-5---5---5-4-2---2---2-0----------------------|
E|-------------------------3----3---------------|


Bridge:
G|---------------------------------------------------------|
D|-7-5--7----5--7----5--7------4----5--7----5--7----5----4-|
A|--------------------------5------------------------------|
E|---------------------------------------------------------|


Verse 3:                (Play This Bit x2)
G|------------------------------------------------------|
D|-9--9---9-9----7--7---7-7----5--5---5-5----4--4---4-4-|
A|------------------------------------------------------|
E|------------------------------------------------------|


Chorus 3:
G|----------------------------------------------------|
D|-------7-----------4-------------BREAK---9--9--9----|
A|-5---5---5-4-2---2---2-0--------------------------7-|
E|-------------------------3----3---------------------|


Outro: (Repeat Outro To Fade/End)
G|------------------------------------------------------|
D|-------7-----------4-------------BREAK---9--9--9------|
A|-5---5---5-4-2---2---2-0----------------------------7-|
E|-------------------------3----3-----------------------|

Symbol: x Muted Note

Almost there ...

Sign in to get your own page with links to favourite songs and more. You are just one click away...

Login with Facebook Login with Google