Log in

One click and you are in

Login with Facebook Login with Google

Why sign up and log in

Guitar Tabs Explorer
Amen chords for Under the robe

Guitar chords

Band:Amen
Album:We have come for your Parents


Tuning:Droped A chord diagramD MajorD tuning-DADGBE
Heavy Distortion.

INTRO RIFF!
E-------------------------------------------------------------------
B-------------------------------------------------------------------
G-------------------------------------------------------------------
D-------------------------------------------------------------------
A-------------------------------------------------------------------
D--0-0-7-0-8-0-0-7-0-0-5-0-3-2-2------------------------------------
MAIN RIFF!
E--------------------------------------------------------------------
B--------------------------------------------------------------------
G--------------------------------------------------------------------
D--0-0-7-0-8-0-0-7-0-0-5-0-3-2-2-------------------------------------
A--0-0-7-0-8-0-0-7-0-0-5-0-3-2-2-------------------------------------
D--0-0-7-0-8-0-0-7-0-0-5-0-3-2-2-------------------------------------


CHORUS/SECOND MAIN RIFF!
E--------------------------------------------------------------------
B--------------------------------------------------------------------
G--------------------------------------------------------------------
D--12-12-12-12-12-12-12-12-8-8-8-8-5-5-5-----------------------------
A--12-12-12-12-12-12-12-12-8-8-8-8-5-5-5-----------------------------
D--12-12-12-12-12-12-12-12-8-8-8-8-5-5-5-----------------------------

Third Main Riff!
E--------------------------------------------------------------------
B--------------------------------------------------------------------
G--------------------------------------------------------------------
D--2-2-2-6-6-6-2-2-2-6-6-6-X-X-X-X-----------------------------------
A--2-2-2-6-6-6-2-2-2-6-6-6-X-X-X-X-----------------------------------
D--2-2-2-6-6-6-2-2-2-6-6-6-X-X-X-X-----------------------------------

Bridge Thingy!
E--------------------------------------------------------------------
B--------------------------------------------------------------------
G--------------------------------------------------------------------
D----0-0-2-0-3-0-0-2-0-0-3-0-2---------------------------------------
A----0-0-2-0-3-0-0-2-0-0-3-0-2---------------------------------------
D----0-0-2-0-3-0-0-2-0-0-3-0-2---------------------------------------

And a one and a two and........


Intro riff
Second Main Riff

Main Riff
Third Main Riff

Chorus

Main Riff
Third Main Riff

Chorus

Bridge Thingy

Chorus.

That is it folks.Distribute it,sell it and make as much money off of
it as you can.Just blame Juicero when you get nicked by the coppers
for copyright violations!

Almost there ...

Sign in to get your own page with links to favourite songs and more. You are just one click away...

Login with Facebook Login with Google