Search tabs and chords

Browse bands and artists

A B C D E F G H I J K L M N O P Q R S T U V W X Y Z #

Log in

[ Register here | Forgot password ]

Guitar Tabs Explorer
Print

I Couldn't Be More In Love tab by The 1975

Guitar tabs

  • Tuning: Standard
  • Difficulty: Intermediate
Solo
e|---------------------------------------------------------------|
B|---------------------------------------------------------------|
G|----------8---------------10b12r10-------------8h10------------|
D|--8/10---------------------------------------------------------|
A|---------------------------------------------------------------|
E|---------------------------------------------------------------|

e|---------------------------------------------------------------|
B|------------------------------------------9p8--------9---------|
G|---------8--------------10h12p10\8----------------------8h10---|
D|--8/10---------------------------------------------------------|
A|---------------------------------------------------------------|
E|---------------------------------------------------------------|

e|---------------------------------------------------------------|
B|---------------9p8---------------------------------------------|
G|--------8h10---------8------------10h12------10h12p10\8--------|
D|--8h10---------------------------------------------------------|
A|---------------------------------------------------------------|
E|---------------------------------------------------------------|

e|---------------------------------------------------------------|
B|---9p8----------------------------------9p8--------11----------|
G|--------10/12\10---------8/10--8-----------------------8/10\8--|
D|---------------------------------------------------------------|
A|---------------------------------------------------------------|
E|---------------------------------------------------------------|

Other versions of I Couldn't Be More In Love

I Couldn't Be More in LoveChords

Comments