Guitar tabs explorer
Print tab

Tesla - “What you give“ Guitar tab

Tesla What you give Guitar tab Related pages are Love Song Acoustic Chords, Wonderful World Tabs, Rock Bottom Tabs, Song & Emotion Tabs, Tommys Down Home Chords. See all Tesla tabs. Submit corrected and missing guitar tab here.

This 'What you give' guitar tab by Tesla also include lyrics.

Please rate and comment!


Auther/Artist:Tesla
Title:What You Give
Album:Psychotic Supper

I didn't tab the solo because there's another
persons tab out there that had it on there if theres
any mistakes its probably cause i missed typed

Intro/Verse:(acoustic)

E----------------------------------------------------
B----------------------------------------------------
G--------0--------0---3s2---------0-2-0--------0-----
D----0h2------0h2--------------------------0h2-------
A----------------------------------------------------
E-3--------3------------------1----------1-----------

E---------------0--------------------------------------------------
B----------3-------3-----------------------------------------------
G-----2s4----4--------4s2-0-----------3s2------0--2-0---------0----
D----------------------------2--0-------------------------0h2------
A------------------------------------------------------------------
E--0-------------------------------1-------1------------1----------

Intro Fills:(electric)

E-17-------15------------------------
B----15s13----13s12------------------
G-------------------14--12~s----------
D------------------------------------
A------------------------------------
E------------------------------------

E--17s----------------
B---------------------
G---------------------
D-------7p5-----------
A---------------------
E---------------------

E------------------------------
B-13h15--13--12h13-------------
G-12-----12--12-----14--12-----
D-------------------14--12-----
A------------------------------
E------------------------------


1st Chorus:(acoustic/clean electric)


   G  D  C Fmaj7

E--3--2--0--0-------------------
B--3--3--1--1-------------------
G--0--2--0--2-------------------
D--0--0--2--3-------------------
A--2-----3----------------------
E--3----------------------------

G            D                          C
I feel so lonley yet I know I'm not the only one

                   G      D                C
to ever feel this way I love you so much that I 

                                 Fmaj7
think I'm goin' insane I'm goin' crazy

                      C                 Fmaj7
Outta my head goin' crazy outta my head

                                     C
can't think about nothin' but your good good love 


and what you give

2nd Verse Fill:(electric)

E------15---------
B--15b-----15~----
G-----------------
D-----------------
A-----------------
E-----------------

Bridge:(electric)

G5                 D5             C5
It's not what you got It's what you give

G5                       D5                    C5   
It's ain't the life you choose It's the life you live


2nd part of bridge:(acoustic/electric fills)

        Fmaj7                C          
its only what you give only what you give

     Fmaj7                           C         
only what you give its not what you got but


the life you live


3rd verse fill:(electric)

E------------------
B----15-15-15~-----
G-14b------14~-----
D------------------
A------------------
E------------------

Outro:(acoustic/clean electric)

guitar 1
E-----0-----3p0---------------------------------------
B-----1---------1-------------------------------------
G---2-------------2---2---2------0--------0-----------
D-3------3----------3---3------2------0h2---0h2-------
A----------------------------3------3------------3----
E-----------------------------------------------------

guitar 2
E-------0---3p0----------------------0-----------------
B-----1---------1------------------1----1--------------
G---2-------------2----2---------0--------0------------
D-3-----------------3----------2------------2----------
A----------------------------3-------------------------
E------------------------------------------------------

for the electric guitar that fades in 
during the outro

E--------
B--------
G-10s----
D-10s----
A--------
E--------

Be the first to rate:

Star rating 1
Star rating 2
Star rating 3
Star rating 4
Star rating 5

Rating: Not rated