Only God Knows Why By Kid Rock

Browse chords & tabs: GuitarTabsExplorer / K / Kid Rock

Guitar Tabs with Lyrics


Print tab
Song:     Only God Knows Why

Artist:   Kid Rock

Album:    Devil W/O a Cause
 
 
 

After searching around on the net 1/2 an hour for the solo, I gave up and

decided to figure out myself and submit it to make it easier for all you

other bastards.

 

The only difference with my version is I play the chords with the bottom

two strings open.  It makes it easier to play and sounds a lot nicer, too.

*Check out the bottom to see what I'm talking about.*

 

(Std. Tuning)

 E B G D A E

 

Verse: E B A E, E B A E  repeat until....

 

                                                      
D                  E              

I guess that's the price.......

 

A                                     E

Outstretched stands............

 

 

Bridge:

 

Db                    Gb

........And when your walls come tumblin'

 

Db             Gb         A   

........I will always be around

 

 

Solo:

 

    E                   B                               A

E| -----12-----------------------------------------------------------------

B| --------9-------------------------------------12-----12-----------------

G| -11b-------r--9------9&11hphp--11--9--11br-p9----11--14-----14-----14---

D| -----------------11-------------------------------------14--14h16--16p14

A| ------------------------------------------------------------------------

E| ------------------------------------------------------------------------

 

                                          E

E| ----------------------------------------------------

B| ----------------------------------------------------

G| ----------------------------------------------------

D| --------14-----14-----14----------------------------

A| -14h16--14h16--14h16--14h16-------------------------

E| -----------------------------16-14--16-16p14\12-12--

 


                                    E                       B

E| ------------------------------------------------------------------------

B| ---------------------------------------------0h2------------------------

G| ------------------------------------------------------------------------

D| -11--11/13--13/14--14\13--13\11--11/13--13\------4-2---2-4-4~-2---------

A| --9---9/11--11/12--12\11--11\9----9/11--11\----------4----------4-2/4---

E| ------------------------------------------------------------------------

 

                    A                  E


E| ----------------------0-0-----------12------------12-------

B| ----------------------5-5---5/7--------9-------------9brb--

G| --------------4--6p4------4-----11b-------r---12b----------

D| ---------2/4-----------------------------------------------

A| -2--4p2----------------------------------------------------

E| -----------------------------------------------------------

 

Bridge

Verse



 

Outro:

 

D       A                  E       E

............Take me to the river

 

Repeat D A E E * 3 (extend A on 3rd time and finish w/ E)

 

 

EBGDAE    EBGDAE    EBGDAE    EBGDAE    EBGDAE    EBGDAE

001220    00442x    00220x    00775x    00664x    00x442

 

   E         B         A         D        C#        Gb

 


h - hammer on
/ - slide up



p - pull off

\ - slide down


b - bend


~ - vibrato
r - return


 

9&11 hphp - hammer and pull repeatedly

 

That's pretty much it.  If you have any questions or comments,

e-mail me at: 
<mailto:bert_rodriguez2000@hotmail.com>bert_rodriguez2000@hotmail.com


Be the first to rate:
Star rating 1Star rating 2Star rating 3Star rating 4Star rating 5

Rating: Not rated



Other media

Only God Knows Why chords
Only God Knows Why bass tabs
Only God Knows Why
(Ver2) chords


Also by kid rock

Roving Ganster bass tabs
Dark And Grey tabs
All Summer Long tabs
All Summer Long bass tabs
Purple Sky chords
When You Love
Someone chords

Jackson Mississippi tabs