Lucy In The Sky With Diamonds By The Beatles : Tabs : GTE

Lucy In The Sky With Diamonds By The Beatles

Browse chords & tabs: GuitarTabsExplorer / B / The Beatles

Guitar Tabs and lyrics


GTE======GTE=========GTE====================GTE=========================== 
Artist: the Beatles
Song: Lucy in the Sky with Diamonds
Album: Sgt Pepper's Lonely Hearts Club Band
Written by : John Lennon, Paul McCartney
Tabbed by: Max Perenchio (Maxacaster@aol.com)
Tuning: Standard
Notes: I THINK the main verse is a hammond organ. Im not sure, so ill tab it 
for the guitar anyways, thats how i play it. 
During the prechorus there is some HEAVY bending

///VERSE\\\-LET RING THRUOUT
note: to get the kinda sound that the hammond organ makes, well what i do 
anyways is have flagner pedal with low batteries (yep) set on high depth but 
low rate.

E-------12---12---------12----10p9--R
B----10--------10----10-----------9-E
G--9-------12------11-------10------P
D-----------------------------------E
A-----------------------------------A
E-----------------------------------T
then:
E-------12---12---------12---8------8--8--
B----10--------10----10------10--10----10-
G--9-------12------11---------------------
D-----------------------------------------
A-----------------------------------------
E-----------------------------------------
repeat that then

///PRECHORUS\\\I know this is an electric guitar, with flanger pedal i 
think. 
E---------------------------------------------------
B------hold bend while plucking------hold bend------
G--5^fb--5-----5-----5-----5---5rb--5^fb--5--5--5rb-
D---------------------------------------------------
A---------------------------------------------------
E---------------------------------------------------
 "cell-o-phane       flow-ers    of yellow and green...etc" 

E---------------------------------------
B--------h-o-l-d--b-e-n-d---------------
G--5^fb--5-----5-----5-----5---5rb--3---
D---------------------------------------
A---------------------------------------
E---------------------------------------
  "towering    over      your      head...etc"

E------------------------------------------
B----------h-o-l-d--b-e-n-d----------------
G--5^fb--5-----5-----5----5----5---5rb-4\2-
D------------------------------------------
A------------------------------------------
E------------------------------------------
"............................... and shes gone"

3 BASS DRUM BEATS

///CHORUS\\\-Some people write the chords, but actually there arent any 
chords at all, just a quiet lead part that kind of gets muffled from the 
blasting keyboards during this part. If you listen to it with headphones its 
SIMPLE to hear. So about it, i put the chords to, just in case you want it to 
sound fuller. Leave the Flanger on, but i think the RATE speeds up a bit.
    G      C       D 
E-----------------------------------
B-----------------------------------
G-----------------------------------
D-------------0-2-0-0-0-0-0-0-0-0-0-
A-------0-2-3-----------------------
E---3-3-----------------------------
  "Lucy....Sky....Diamonds...etc"

thats all the parts in the song