Guitar tabs explorer
Print tab

Bach Johann Sebastian - “Bouree“ Guitar tab

Bach Johann Sebastian Bouree guitar tab. Related pages are Bwv 805 - Duetto Iv In A Minor Tabs, Bwv 804 - Duetto Iii In G Major Tabs, Bwv 803 - Duetto Ii In F Major Tabs, Bwv 802 - Duetto I In E Minor Tabs, Bwv 1006a Gigue Tabs. See all Bach Johann Sebastian tabs. Submit corrected and missing guitar tab here.

Please rate and comment!


-------------------------------------------------------------------------------
			     Bouree - Johann Sebastian Bach
-------------------------------------------------------------------------------
Tabbed by:Hayley


Tuning:

e|---0--2--3--2--0-----0--2-----------0--------------------------------------|
B|------------------4--------0--2--4-----3--1--0-----------------------------|
G|------------------------------------------------2--0-----0--2--4--2--0-----|
D|------------------------------------------------------4-----------------2--|
A|---------------------------------------------------------------------------|
E|---------------------------------------------------------------------------|


This is all I have picked out so far.



| /  slide up
| \  slide down
| h  hammer-on
| p  pull-off
| ~  vibrato
| +  harmonic
| x  Mute note
===============================================================================

Be the first to rate:

Rating: Not rated