Log in

One click and you are in

Login with Facebook Login with Google

Why sign up and log in

Guitar Tabs Explorer
ZZ Top tabs for Sure got cold after the rain fell

Guitar tabs with lyrics

Rain fell / Make me feel
   A chord diagramA augmentedA     A chord diagramD MajorD     A chord diagramA7A7    A chord diagramD MajorD     A chord diagramA augmentedA     A chord diagramD MajorD     A chord diagramA7A7    A chord diagramD MajorD     A chord diagramA augmentedA     A chord diagramD MajorD     A chord diagramA7A7    A chord diagramD MajorD
A chord diagramE MajorE|-------------|-----------|-----------|-----------|-----------|-----------|
A chord diagramBB|----2-----3-----5-----3-----2-----3-----5-----3-----2-----3-----5-----3--|
A chord diagramG+G|---2-2---2-2---6-6---2-2---2-2---2-2---6-6---2-2---2-2---2-2---6-6---2-2-|
A chord diagramD MajorD|--2---2-4---4-5---5-4---4-2---2-4---4-5---5-4---4-2---2-4---4-5---5-4---4|
A chord diagramA augmentedA|-0-----0-----0-----0-----0-----0-----0-----0-----0-----0-----0-----0-----|
A chord diagramE MajorE|-------------------------------------------------------------------------|

On account /Walked off /Like taking   / & money/That woman /And walked
A chord diagramA augmentedA     A chord diagramD MajorD     A chord diagramA7A7    A chord diagramD MajorD     A chord diagramA augmentedA     A chord diagramD MajorD     A chord diagramA7A7    A chord diagramD MajorD     A chord diagramA augmentedA     A chord diagramD MajorD     A chord diagramA7A7    A chord diagramD MajorD
------------|-----------|-----------|-----------|-----------|-------------|
---2-----3-----5-----3-----2-----3-----5-----3-----2-----3-----5-----3----|
--2-2---2-2---6-6---2-2---2-2---2-2---6-6---2-2---2-2---2-2---6-6---2-----|
-2---2-4---4-5---5-4---4-2---2-4---4-5---5-4---4-2---2-4---4-5---5-4------|
0-----0-----0-----0-----0-----0-----0-----0-----0-----0-----0-----0-------|
----------------------------------------------------------------------0-2-|

And it sure /After the rain  /    Not from /   From my eye
A chord diagramG+G     Ds2    A chord diagramA augmentedA                    A chord diagramG+G      Ds2   A chord diagramA augmentedA                   A chord diagramA augmentedA
---------0---|--------------------|---------0--|-------------------|-------|
---0------3----2-3-3-3p2-3-3-2-------0------3----2-2-2h3-3-3-2!-$-----2----|
----0---2--2--2--2-2-2p2-2-2-2--------0---2--2--2--2-2h2-2-2-2!-$----2-2---|
--0--0-0-----2---4-4-4p2-4-4-2------0--0-0-----2---2-2h4-4-4-2!-$---2---2--|
-2----0-----0----------------0-----2----0-----0--------------------0-------|
3-----------------------------0-2-3----------------------------------------|

                                           Somebody can/Just what/ Like a
A chord diagramD MajorD     A chord diagramA7A7    A chord diagramD MajorD     A chord diagramA augmentedA     A chord diagramD MajorD     A chord diagramA7A7    A chord diagramD MajorD      A chord diagramA augmentedA     A chord diagramD MajorD     A chord diagramA7A7    A chord diagramD MajorD     A chord diagramA augmentedA
------|-----------|-----------|---------0+-|---------0-|-----------|-------|
---3-----5-----3-----2-----3-----5-----3------2-----3-3---5-----3-----2----|
--2-2---6-6---2-2---2-2---2-2---6-6---2------2-2---2-----6-6---2-2---2-2---|
-4---4-5---5-4---4-2---2-4---4-5---5-4------2---2-4-----5---5-4---4-2---2--|
0-----0-----0-----0-----0-----0-----0------0-----0-----0-----0-----0-------|
---------------------------------------------------------------------------|

river/Like night /  AND IT SURE/ After the rain /  Not from /  From my eye
A chord diagramD MajorD     A chord diagramA7A7    A chord diagramD MajorD       A chord diagramG+G     Ds2   A chord diagramA augmentedA                 A chord diagramG+G     Ds2   A chord diagramA augmentedA
------|-------------|--------0--|-----------------|--------0--|--------------|
---3-----5-----3-------0------3----2---3p2--2--------0------3----2-----3-2---|$
--2-2---6-6---2---------0---2--2--2-2--2p2-2----------0---2--2--2-2----2-2---|$
-4---4-5---5-4--------0--0-0-----2---2-4p2---2------0--0-0-----2---4p2-4-2---|$
0-----0-----0--------2----0-----0------------------2----0-----0--------------|
----------------0-2-3-------------------------0-2-3--------------------------|

A chord diagramA augmentedA     A chord diagramD MajorD     A chord diagramA7A7    A chord diagramD MajorD     A chord diagramA augmentedA     A chord diagramD MajorD     A chord diagramA7A7    A chord diagramD MajorD     A chord diagramA augmentedA
------------|-----------|-----------|-----------|-------------------------|
---2-----3-----5-----3-----2-----3-----5-----3---------14----------14-----|
--2-2---2-2---6-6---2-2---2-2---2-2---6-6---2-2------14--14------14--14---|
-2---2-4---4-5---5-4---4-2---2-4---4-5---5-4---4---14------14--14------14-|
0-----0-----0-----0-----0-----0-----0-----0------16----------16-----------|
--------------------------------------------------------------------------|

A chord diagramA augmentedA                     A chord diagramA augmentedA      A chord diagramD MajorD     A chord diagramA7A7    A chord diagramD MajorD     A chord diagramA augmentedA            A chord diagramA augmentedA
----------------------|------------|-----------|------------|-------------$|
-----14---------14--------2-----3-----5-----3------5-----5-----5-----5----$|
---14--14-----14--14-----2-2---2-2---6-6---2-2----6-6---6-6---6-6---6-6!--$|
--14-----14--14-----14--2---2-4---4-5---5-4---4--7---7-7---7-7---7-7------$|
/16--------/16---------0-----0-----0-----0------7-----7-----7-----7-------$|
-----------------------------------------------------------------------12\$|

                                                  If early in/ You hear that
A chord diagramA augmentedA     A chord diagramD MajorD     A chord diagramA7A7    A chord diagramD MajorD     A chord diagramA augmentedA     A chord diagramD MajorD      A chord diagramA7A7    A chord diagramD MajorD     A chord diagramA augmentedA     A chord diagramD MajorD      A chord diagramA7A7    A chord diagramD MajorD
------------|-----------|---------0--|-----------|---------0--|-----------|
---2-----3-----5-----3-----2-----3-3----5-----------2-----3-3----5-----3--|
--2-2---2-2---6-6---2-2---2-2---2---2--6-6---2+2---2-2---2---2--6-6---2-2-|
-2---2-4---4-5---5-4---4-2---2-4------5---5-4---4-2---2-4------5---5-4---4|
0-----0-----0-----0-----0-----0------0-----0-----0-----0------0-----0-----|
--------------------------------------------------------------------------|

With thundr/The wind /  Your worr's/ Cause it / But stormy/ If everythings
A chord diagramA augmentedA     A chord diagramD MajorD     A chord diagramA7A7    A chord diagramD MajorD     A chord diagramA augmentedA     A chord diagramD MajorD     A chord diagramA7A7    A chord diagramD MajorD     A chord diagramA augmentedA     A chord diagramD MajorD     A chord diagramA7A7    A chord diagramD MajorD
------------|-----------|-----------|---------0-|---------0-|--------------|
---2-----3-----5-----3-----2-----3-----5-----3-3---2-----3-3---5-----3-----|
--2-2---2-2---6-6---2-2---2-2---2-2---6-6---2-----2-2---2-----6-6---2-2----|
-2---2-4---4-5---5-4---4-2---2-4---4-5---5-4-----2---2-4-----5---5-4---4---|
0-----0-----0-----0-----0-----0-----0-----0-----0-----0-----0-----0--------|
------------------------------------------------------------------------0-2|

And it sure/ After the /   Not from / But from my eye /       Not from the
A chord diagramG+G     Ds2   A chord diagramA augmentedA             A chord diagramG+G     Ds2   A chord diagramA augmentedA                       A chord diagramG+G     Ds2
---------0--|-------------|--------0--|-----------------------|--------0---|
---0------3----2-2---3-------0------3----2---2h3-2-2h3-2---------0------3--|
----0---2--2--2-2---2---------0---2--2--2--2-2h2-2-2h2-2----------0---2--2-|
--0--0-0-----2-----4--------0--0-0-----2-----2h4-2-2h4-2--------0--0-0-----|
-2----0-----0-----0--------2----0-----0---0--------------------2----0------|
3---------------------0-2-3-------------------------------0-2-3------------|

From my eye
A chord diagramA augmentedA             A chord diagramG+G     Ds2
--------------|--------0---|
---2---3---------0------3--|
--2---2--2--------0---2--2-|
-2---4--4-------0--0-0-----|
0---0----------2----0------|
----------0-2-3------------|


A chord diagramA augmentedA                         A chord diagramG+G     Ds2   A chord diagramA augmentedA               A chord diagramG+G     Ds2
--------------------------|--------0--|---------------|--------0---|
-3-3-------------------------0------3--------------------0------3--|
2-2-2-------------------------0---2--2--2--2-2+-2+--------0---2--2-|
-----2-2-4p2-2-2-4p2-2------0--0-0-----2--4--2+-2+------0--0-0-----|
---------------------------2----0-----0--0---0+-0+-----2----0------|
----------------------0-2-3-----------------------0-2-3------------|


A chord diagramA augmentedA                          A chord diagramG+G     Ds2   A chord diagramA augmentedA                           A chord diagramG+G
---------------------------|--------0--|---------------------------|------|
------------------------------0------3----2-2-3p2-3-3p2-3-3p2-2-------0---|
-2-2---------------------------0---2--2--2--2-2p2-2-2p2-2-2p2-2--------0--|
----2-4-4-4-4-2-4-4-4-4------0--0-0-----2---2-4p2-4-4p2-4-4p2-2------0--0-|
0-0-------------------------2----0-----0----------------------------2-----|
-----------------------0-2-3-----------------------------------0-2-3------|


Ds2   A chord diagramA augmentedA                                 A chord diagramG+G     Ds2   A chord diagramA augmentedA
---0--|---------------------------------|--------0--|-----------------------|
----3--------2h3-3-3-3-3-2h3-3-3-3-3-------0------3----2-2h3-3-2h3-3-2h3-3--|
--2--2--2--2-2h2-2-2-2-2-2h2-2-2-2-2--------0---2--2--2--2h2-2-2h2-2-2h2-2--|
-0-----2--4--2h4-4-4-4-4-2h4-4-4-4-4------0--0-0-----2---2h4-4-2h4-4-2h4-4--|
0-----0--0-------------------------------2----0-----0-----------------------|
------------------------------------0-2-3---------------------------------0-|


   A chord diagramG+G      Ds2   A chord diagramA augmentedA                            A chord diagramG+G     A chord diagramD MajorD     A chord diagramA augmentedA
---|------------|----------------------------|--------0--|-------------------|
--------0----3------2-2-3-3-2-3p2-3-3p2-2-------0------3-----2-------2-3p2-2-|
---------0--2-2----2--2-2-2-2-2p2-2-2p2-2--------0---2--2---2--2-2-2-2-2p2-2-|
-----0-0---0---0--2---2-4-4-2-4p2-4-4p2-2------0--0-0------2---------2-4p2-2-|
----2-----0------0----------------------------2----0------0---0--------------|
-2-3-------------------------------------0-2-3-------------------------------|


           A chord diagramG+G     Ds2   A chord diagramA augmentedA                   A chord diagramG+G     Ds2   A chord diagramA augmentedA
-----------|--------0--|-------------------|--------0--|-------------|
2-3p2-2-------0------3----2-2-2-2h3-3-3-------0------3---------------|
2-2p2-2--------0---2--2--2------2-2-2-2--------0---2--2--2--2--2-----|
2-4p2-2------0--0-0-----2-------2-2-2-2------0--0-0-----2--4--2-4----|
------------2----0-----0--------------------2----0-----0--0--0-------|
-------0-2-3---------------------------0-2-3---------------------0-2-|


A chord diagramG+G           A chord diagramA augmentedA
---------0--|-------------------|
---0------3--------2------$---$-|
----0---2--2-----2--------$---$-|
--0--0-0-------2----------$---$-|
-2----0------0------------$---$-|
3-------------------------------|


     h = hammer on
     p = pull off
     $ = rest
     + = let ring
     / = slide up
     \ = slide down
     ! = stacoto note  (strum then mute)
 --|-- = the end of a measure
   Ds2 = A chord diagramD MajorD susp. 2

(1st verse)
Rain fell this morning , Make me feel so bad , On account of my baby ,
Walked off with another man , Like taking eye sight from the blind man ,
And money from the poor , That woman took my lovin' ,
And walked out that door .

(chorus)
And it sure (nuff) got cold , After the rain fell , Not from the sky ,
(but) From my eye .

(2nd verse)
Somebody can you tell me , Just what make a man feel this way ,
Like a river without it's water , Like night without a day .

(3rd verse)
If ever early in the morning , You hear that rain to fall ,
With thunder bolts and lightning , The wind begins to call ,
Your worries superficial , Cause you slept on through the night ,

Other versions of Sure Got Cold After The Rain Fell

Sure got cold after the rain fellChords
Sure got cold after the rain fell (Ver. 2)Chords

Almost there ...

Sign in to get your own page with links to favourite songs and more. You are just one click away...

Login with Facebook Login with Google