Log in

One click and you are in

Login with Facebook Login with Google

Why sign up and log in

Guitar Tabs Explorer
ZZ Top bass tabs for Shes just killing me

Bass tabs

Standard tuning; E A D G


Intro
Wait 3 bars then come in.
G |-----------------|-----------------|-----------------|-----------------|
D |-----------------|-----------------|-----------------|-----------------|
A |-----------------|-----------------|-----------------|-----------------|
E |-0-0-3-0-3-0-0-3-|-0-3-0-0-5-0-3-0-|-0-0-3-0-3-0-0-3-|-0-0-3-0---------|
  1 & 2 & 3 & 4 &  1 & 2 & 3 & 4 &  1 & 2 & 3 & 4 &  1 & 2 & 3 & 4 &
Verse
G |-----------------|-----------------| x3
D |-----------------|-----------------|
A |-----------------|-----------------|
E |-0-0-3-0-3-0-0-0-|-3-0-3-0---0---0-|
  1 & 2 & 3 & 4 &  1 & 2 & 3 & 4 &
G |-----------------|-----------------|
D |-----------------|-----------------|
A |-4-4-4-44--4-4-4-|-----------------|
E |-----------------|-5-5-5-55--5-5-5-|
  1 & 2 & 3 & 4 &  1 & 2 & 3 & 4 &


Chorus
G |-----------------|-----------------| x3
D |-----------------|-----------------|
A |---------------0-|-0-0-0-0-0-0-0-0-|
E |-3---0-3-0-0-3---|-----------------|
  1 & 2 & 3 & 4 &  1 & 2 & 3 & 4 &
G |-----------------|-----------------|-------4---2-----|-----------------|
D |-----------------|-----------------|-------------4-2-|-----------------|
A |-2-2-2-22--2-2-2-|-2-2-2-22--2-2-2-|-2-2-------------|-2---------------|
E |-----------------|-----------------|-----------------|-----------------|
  1 & 2 & 3 & 4 &  1 & 2 & 3 & 4 &  1 & 2 & 3 & 4 &  1 & 2 & 3 & 4 &

Bridge
G |-----------------|-----------------|-----------------|-----------------|
D |-----------------|-----------------|-----------------|-----------------|
A |-----------------|-----------------|-----------------|-----------------|
E |-0-0-3-0-3-0-0-3-|-0-3-0-0-5-0-3-0-|-0-0-3-0-3-0-0-3-|-0-0-3-0---------|
  1 & 2 & 3 & 4 &  1 & 2 & 3 & 4 &  1 & 2 & 3 & 4 &  1 & 2 & 3 & 4 &


Verse
G |-----------------|-----------------| x3
D |-----------------|-----------------|
A |-----------------|-----------------|
E |-0-0-3-0-3-0-0-0-|-3-0-3-0---0---0-|
  1 & 2 & 3 & 4 &  1 & 2 & 3 & 4 &
G |-----------------|-----------------|
D |-----------------|-----------------|
A |-4-4-4-44--4-4-4-|-----------------|
E |-----------------|-5-5-5-55--5-5-5-|
  1 & 2 & 3 & 4 &  1 & 2 & 3 & 4 &


Chorus
G |-----------------|-----------------| x3
D |-----------------|-----------------|
A |---------------0-|-0-0-0-0-0-0-0-0-|
E |-3---0-3-0-0-3---|-----------------|
  1 & 2 & 3 & 4 &  1 & 2 & 3 & 4 &
G |-----------------|-----------------|-------4---2-----|-----------------|
D |-----------------|-----------------|-------------4-2-|-----------------|
A |-2-2-2-22--2-2-2-|-2-2-2-22--2-2-2-|-2-2-------------|-2---------------|
E |-----------------|-----------------|-----------------|-----------------|
  1 & 2 & 3 & 4 &  1 & 2 & 3 & 4 &  1 & 2 & 3 & 4 &  1 & 2 & 3 & 4 &


Bridge
G |-----------------|-----------------|-----------------|-----------------|
D |-----------------|-----------------|-----------------|-----------------|
A |-----------------|-----------------|-----------------|-----------------|
E |-0-0-3-0-3-0-0-3-|-0-3-0-0-5-0-3-0-|-0-0-3-0-3-0-0-3-|-0-0-3-0---------|
  1 & 2 & 3 & 4 &  1 & 2 & 3 & 4 &  1 & 2 & 3 & 4 &  1 & 2 & 3 & 4 &


Solo
Improvise in a E minor pentatonic scale.


Verse
G |-----------------|-----------------| x3
D |-----------------|-----------------|
A |-----------------|-----------------|
E |-0-0-3-0-3-0-0-0-|-3-0-3-0---0---0-|
  1 & 2 & 3 & 4 &  1 & 2 & 3 & 4 &
G |-----------------|-----------------|
D |-----------------|-----------------|
A |-4-4-4-44--4-4-4-|-----------------|
E |-----------------|-5-5-5-55--5-5-5-|
  1 & 2 & 3 & 4 &  1 & 2 & 3 & 4 &


Chorus
G |-----------------|-----------------| x3
D |-----------------|-----------------|
A |---------------0-|-0-0-0-0-0-0-0-0-|
E |-3---0-3-0-0-3---|-----------------|
  1 & 2 & 3 & 4 &  1 & 2 & 3 & 4 &
G |-----------------|-----------------|-------4---2-----|-----------------|
D |-----------------|-----------------|-------------4-2-|-----------------|
A |-2-2-2-22--2-2-2-|-2-2-2-22--2-2-2-|-2-2-------------|-2---------------|
E |-----------------|-----------------|-----------------|-----------------|
  1 & 2 & 3 & 4 &  1 & 2 & 3 & 4 &  1 & 2 & 3 & 4 &  1 & 2 & 3 & 4 &
G |-----------------|-----------------| x3
D |-----------------|-----------------|
A |---------------0-|-0-0-0-0-0-0-0-0-|
E |-3---0-3-0-0-3---|-----------------|
  1 & 2 & 3 & 4 &  1 & 2 & 3 & 4 &
G |-----------------|-----------------|-------4---2-----|-----------------|
D |-----------------|-----------------|-------------4-2-|-----------------|
A |-2-2-2-22--2-2-2-|-2-2-2-22--2-2-2-|-2-2-------------|-2---------------|
E |-----------------|-----------------|-----------------|-----------------|
  1 & 2 & 3 & 4 &  1 & 2 & 3 & 4 &  1 & 2 & 3 & 4 &  1 & 2 & 3 & 4 &


Bridge
G |-----------------|-----------------|-----------------|-----------------|
D |-----------------|-----------------|-----------------|-----------------|
A |-----------------|-----------------|-----------------|-----------------|
E |-0-0-3-0-3-0-0-3-|-0-3-0-0-5-0-3-0-|-0-0-3-0-3-0-0-3-|-0-0-3-0---------|
  1 & 2 & 3 & 4 &  1 & 2 & 3 & 4 &  1 & 2 & 3 & 4 &  1 & 2 & 3 & 4 &


Solo/Outro
Improvise over an E minor pentatonic scale.
ⓘ Bass guitar tab for 'Shes Just Killing Me' by ZZ Top, a rock band formed in 1969 from Houston, Texas, USA. ZZ Top is known for their gritty rock/pop music.

Almost there ...

Sign in to get your own page with links to favourite songs and more. You are just one click away...

Login with Facebook Login with Google