Log in

One click and you are in

Login with Facebook Login with Google

Why sign up and log in

Guitar Tabs Explorer
ZZ Top tabs for Master of sparks

Guitar tabs

Tableture Key

h-hammer on
p-pull off
b-bend
~-vibrato

|-----------------------------|
|-----------------------------|
|-----------------------------|
|-----------------------------|
|-----------------------------|
|-1h3-1h3-6-3p1h3-1h3-6-3p1h3-|

|-----------------------------|------------------|
|-----------------------------|------------------|
|-----------------------------|------------------| repeat to the
|-----------------------------|-1h3p1h3p1h3p1h3p-|     intro
|-1h3-1h3-6-3p1h3-1h3-6-3p1h3-|------------------|
|-----------------------------|------------------|


Solo

|---------------------------------|---------------------------------|
|---------------------------------|---------------------------------|
|---------------------------------|-3h5-3h5-8-5p3h5-3h5-8-5p3h5-3h5-|
|-3h5-3h5-8-5p3h5-3h5-8-5p3h5-3h5-|---------------------------------|
|---------------------------------|---------------------------------|
|---------------------------------|---------------------------------|

|-----3h6p3-------3h6p3---------------|
|-3h6-------6p3h6-------6p3h6p3-3b----|
|-------------------------------3b----|
|----------------------------------5~-| Back To The Beginning
|-------------------------------------|
|-------------------------------------|

After the intro all the way through play a wierd bending solo that contains the wah-wah pedal

Bass

|---------------------|---------------------|
|---------------------|---------------------| Play this with the intro, solo
|---------------------|-1h3-1h3-6-3p1h3-1h3-| 1 and solo 2 repeat both lines
|-1h3-1h3-6-3p1h3-1h3-|---------------------| about 4 times

Almost there ...

Sign in to get your own page with links to favourite songs and more. You are just one click away...

Login with Facebook Login with Google