Log in

One click and you are in

Login with Facebook Login with Google

Why sign up and log in

Guitar Tabs Explorer
ZZ Top bass tabs for I need you tonight

Bass tabs

G|------|-----------------------------------------|
D|------|---5---------------------------5---------|
A|-REST-|-8---8-5-5555-------55555--5-8---8-5-----|
E|------|---------------8-8-----------------------|

G|----------------------------------|
D|------------------------5---------| x5
A|--5555-------55555--5-8---8-5-----|
E|--------8-8-----------------------|

G|-----------------------------------------------------|
D|-----------------------------------------------5-----|
A|---33333-3-2----------5555-3333------5555--5-8---8-5-|
E|------------5-3333--------------5555-----------------|

G|----------------------------------|
D|------------------------5---------| x4
A|--5555-------55555--5-8---8-5-----|
E|--------8-8-----------------------|

G|---------------------------------------------------|
D|---------------------------------------------5-----|
A|---33333-2----------5555-3333------5555--5-8---8-5-|
E|------------5-3333------------5555-----------------|

G|----------------------------------|
D|------------------------5---------| x2
A|--5555-------55555--5-8---8-5-----|
E|--------8-8-----------------------|

G|------------------------------|
D|------------------------------| x2
A|---------------5555------5555-|
E|--3333--1111--------8888------|

G|----------------------------------------------|
D|----------------------------------------5-----|
A|---5555----3333---------------5555--5-8---8-5-|
E|------------------5555--3333------------------|

G|----------------------------------|
D|------------------------5---------| x2
A|--5555-------55555--5-8---8-5-----|
E|--------8-8-----------------------|

G|------------------------------|
D|------------------------------| x2
A|---------------5555------5555-|
E|--3333--1111--------8888------|

G|----------------------------------------------|
D|----------------------------------------5-----|
A|---5555----3333---------------5555--5-8---8-5-|
E|------------------5555--3333------------------|

G|----------------------------------|
D|------------------------5---------|
A|--5555-------55555--5-8---8-5-----|
E|--------8-8-----------------------|

G|---------------------------------------------------|
D|---------------------------------------------5-----|
A|---33333-2----------5555-3333------5555--5-8---8-5-|
E|------------5-3333------------5555-----------------|

G|----------------------------------|
D|------------------------5---------|
A|--5555-------55555--5-8---8-5-----|
E|--------8-8-----------------------|

G|------------------------------|
D|------------------------------| x2
A|---------------5555------5555-|
E|--3333--1111--------8888------|

G|-----------------------------------------------------|
D|-----------------------------------------------5-----|
A|---5555----3333---------------5555-----55555-8---8-5-|
E|------------------5555--3333-------8-8---------------|

G|----------------------------------|
D|------------------------5---------|
A|--5555-------55555--5-8---8-5-----|
E|--------8-8-----------------------|

G|-----------------------------------------------------|
D|-----------------------------------------------5-----|
A|---5555----3333---------------5555-----55555-8---8-5-|
E|------------------5555--3333-------8-8---------------|

G|----------------------------------|
D|------------------------5---------| x4
A|--5555-------55555--5-8---8-5-----|
E|--------8-8-----------------------|

G|------------------------------|
D|------------------------------| x2
A|---------------5555------5555-|
E|--3333--1111--------8888------|

Almost there ...

Sign in to get your own page with links to favourite songs and more. You are just one click away...

Login with Facebook Login with Google