Log in

One click and you are in

Login with Facebook Login with Google

Why sign up and log in

Guitar Tabs Explorer
ZZ Top bass tabs for Got me under pressure

Bass tabs with lyrics

Got Me Under Pressure - ZZ Top
-------------------------------------------------------------------------------

Tabbed by: axe victim

Tuning: EADG


Intro:

___E5_____________________________

G|--------------------------------|
D|--------------------------------|
A|-7------------------------------|
E|--------------------------------|


___E5______________________________________

G|--------------------------------|--------------------------------|
D|--------------------------------|--------------------------------|
A|-7-------7---7---7-------7---7--|-7------------------------------|
E|--------------------------------|--------------------------------|

 | 1 - & - 2 - & - 3 - & - 4 - & -| 1 - & - 2 - & - 3 - & - 4 - & -|


A few times then...


___D5/E_____________________________________________________E______

G|--------------------------------|--------------------------------|
D|--------------------------------|--------------------------------|
A|-7-------7---7---7-------7---7--|-7-------7---7---7-------7---7--|
E|--------------------------------|--------------------------------|

 | 1 - & - 2 - & - 3 - & - 4 - & -| 1 - & - 2 - & - 3 - & - 4 - & -|

___D5/E_____________________________________________________E______

G|--------------------------------|--------------------------------|
D|--------------------------------|--------------------------------|
A|-7-------7---7---7-------7---7--|-7-------7---7---7-------7---7--|
E|--------------------------------|--------------------------------|


___E_______D5/E_____________________________________________E______

G|--------------------------------|--------------------------------|
D|--------------------------------|--------------------------------|
A|-7------------------------------|--------------------------------|
E|--------------------------------|--------------------------------|


No bass for two more bars then...


Verse:


___E_______________________________________________________________
 " She   likes  wearing   lip -  stick... "
 " she   likes  French   cui -  sine        but she... "
 " won't  let me use   my pas -  sion "
G|--------------------------------|--------------------------------|
D|--------------------------------|--------------------------------|
A|-7-------7---7---7-------7---7--|-7-------7---7---7-------5---6--|
E|--------------------------------|---------------------7----------|

 | 1 - & - 2 - & - 3 - & - 4 - & -| 1 - & - 2 - & - 3 - & - 4 - & -|


___E5___________________________________
" unless it's in a lim - ou - sine   she's got me un - der... "
G|--------------------------------|--------------------------------|
D|--------------------------------|--------------------------------|
A|-7-------7---7---7-------7---7--|-7------------------------------|
E|--------------------------------|--------------------------------|


Chorus:


___E___________Em7_(0x978x)_________________________A______________
 " pressure                  she's got me under... "
G|--------------------------------|--------------------------------|
D|--------------------------------|-----------------7-------7------|
A|-7-------7---7---7-------7---7--|-7-------7---7------------------|
E|--------------------------------|--------------------------------|


___E___________Em7_(0x978x)_________________
 " pressure "
G|--------------------------------|--------------------------------|
D|--------------------------------|--------------------------------|
A|-7-------7---7---7-------7---7--|-7------------------------------|
E|--------------------------------|--------------------------------|


Repeat verse, more or less the same.

Repeat chorus.

Guitar solo 1:


___E5_______________________________D5_____________________________

G|--------------------------------|--------------------------------|
D|--------------------------------|--------------------------------|
A|-7-------7---7---7-------7---7--|-5-------5---5---5-------5---6--|
E|--------------------------------|---------------------7----------|


___E5______________________________________________________________

G|--------------------------------|--------------------------------|
D|--------------------------------|--------------------------------|
A|-7-------7---7---7-------7---7--|-7-------7---7---7-------5---6--|
E|--------------------------------|---------------------7----------|


___E5______

G|--------------------------------|--------------------------------|
D|--------------------------------|--------------------------------|
A|-7------------------------------|--------------------------------|
E|--------------------------------|--------------------------------|


Middle part:


___A5______________________________________________________________
 " I'm   gonna  give her a  message            and... "
G|--------------------------------|--------------------------------|
D|-7-------7---7---7-------7---7--|-7-------7---7---7-------7---7--|
A|--------------------------------|--------------------------------|
E|--------------------------------|--------------------------------|

 | 1 - & - 2 - & - 3 - & - 4 - & -| 1 - & - 2 - & - 3 - & - 4 - & -|


___F#5_____________________________________________________________
 " here's what I'm gonna say              it's all... "
G|--------------------------------|--------------------------------|
D|--------------------------------|--------------------------------|
A|-9-------9---9---9-------9---9--|-9-------9---9---9-------9---9--|
E|--------------------------------|--------------------------------|


___E5______________________________________________________________
 " over... " (etc...)
G|--------------------------------|--------------------------------|
D|--------------------------------|--------------------------------|
A|-7-------7---7---7-------7---7--|-7-------7---7---7-------7---7--|
E|--------------------------------|--------------------------------|


Repeat middle part chord sequence.


Repeat chorus.

Guitar solo 2: (same chord sequence as guitar solo 1.)


Solo to end...

Almost there ...

Sign in to get your own page with links to favourite songs and more. You are just one click away...

Login with Facebook Login with Google