Log in

One click and you are in

Login with Facebook Login with Google

Why sign up and log in

Guitar Tabs Explorer
Zwan tabs for Permanence

Guitar tabs with lyrics

Artist : Zwan
Release: None (As Yet)
Author : Iain Strong

Tuning : Drop A chord diagramD MajorD
 
This is quite a strange song, unlike anything Billy has written
before (has he ever used drop A chord diagramD MajorD tuning ). On the recording, it
is quite hard to differentiate between guitar and bass, since
the guitars are more or less clean throughout, and the tune
is pretty sparse anyway. My impression is that both guitars are
playing the same chords in different octaves.
You'll see what I mean...
 
 

Verse (1st Part):
 
(Guitar 1)
x-----------------------------------x
x-----------------------------------x
x-----------------------------------x
x------0-----0---0-----4-----4---4--x
x----0-----0---------4-----4--------x
x--0-----0-----0---4-----4-----4----x
 
(Guitar 2)
x----------------------------------------x
x----------------------------------------x
x------7-----7---7------11------11---11--x
x----7-----7---------11------11----------x
x--5-----5-----5---9-------9-------9-----x
x----------------------------------------x
(From now on, you should be able to work it out)
 
 

Verse (2nd Part):
 
x-----------------------------------x
x-----------------------------------x
x-----------------------------------x
x------5-----5---5-----5-----5---5--x
x----5-----5---------5-----5--------x
x--5-----5-----5---5-----5-----5----x
 
 

Bridge (1st Part):
 
x-------------------------------x
x-------------------------------x
x-------------------------------x
x--4-4-4-4-4-4-4/5-5-5-5-5-5-5--x
x--4-4-4-4-4-4-4/5-5-5-5-5-5-5--x
x--4-4-4-4-4-4-4/5-5-5-5-5-5-5--x
 
 

Bridge (2nd Part):
 
x-------------------------------x
x-------------------------------x
x-------------------------------x
x--4-4-4-4-4-4-4/9-9-9-9-9-9-9--x
x--4-4-4-4-4-4-4/9-9-9-9-9-9-9--x
x--4-4-4-4-4-4-4/9-9-9-9-9-9-9--x
 
 

Chorus (1st Part):
 
x-----------------------------------------------------------x
x-----------------------------------------------------------x
x-----------------------------------------------------------x
x--7-7-7-7-7-7-7-7-7-7-7-7-7-7\5-5-5-5-5-5-5-5-5p4h5p4/9-9--x
x--7-7-7-7-7-7-7-7-7-7-7-7-7-7\5-5-5-5-5-5-5-5-5p4h5p4/9-9--x
x--7-7-7-7-7-7-7-7-7-7-7-7-7-7\5-5-5-5-5-5-5-5-5p4h5p4/9-9--x
 
 

Chorus (2nd Part):
 
x-------------------------------x
x-------------------------------x
x-------------------------------x
x--4-4-4-4-4-4-4/9-9-9-9-9-9-9--x
x--4-4-4-4-4-4-4/9-9-9-9-9-9-9--x
x--4-4-4-4-4-4-4/9-9-9-9-9-9-9--x
 
 
 
This is the basic format which the song follows throughout, with
a few minor variations (remember, this is a live recording),
for instance:
 
 
2nd Chorus (Part 1):
 
x-----------------------------------------------------------x
x-----------------------------------------------------------x
x-----------------------------------------------------------x
x--7-7-7-7-7-7-7-7-7-7-7-7-7-7/9-9-9-9-9-9-9-9-9-9-9-9-9-9--x
x--7-7-7-7-7-7-7-7-7-7-7-7-7-7/9-9-9-9-9-9-9-9-9-9-9-9-9-9--x
x--7-7-7-7-7-7-7-7-7-7-7-7-7-7/9-9-9-9-9-9-9-9-9-9-9-9-9-9--x
 
 
2nd Chorus (Part 2):
 
x-----------------------------x
x-----------------------------x
x-----------------------------x
x--7-7-7/9-9\5-5-5-5-5\4-4-4--x
x--7-7-7/9-9\5-5-5-5-5\4-4-4--x
x--7-7-7/9-9\5-5-5-5-5\4-4-4--x
 
 
Plus, there are various bridges scattered around the outro, such as:
 
x--------------------------------x
x--------------------------------x
x--------------------------------x
x--9-9-9/11-11-11\6-6-6-6/7-7-7--x
x--9-9-9/11-11-11\6-6-6-6/7-7-7--x
x--9-9-9/11-11-11\6-6-6-6/7-7-7--x
 
 
End On:
 
x-----x
x-----x
x-----x
x--0--x
x--0--x
x--0--x
 
 
This file is all my own work and represents my interpretation of the
song.
 

Almost there ...

Sign in to get your own page with links to favourite songs and more. You are just one click away...

Login with Facebook Login with Google