Log in

One click and you are in

Login with Facebook Login with Google

Why sign up and log in

Guitar Tabs Explorer
Zwan tabs for Glorious

Guitar tabs

Artist : Zwan
Release: None (As Yet)
Author : Iain Strong

Tuning : Standard
 
This is an awesome song from Billy Corgan's new band, Zwan
(similar to Untitled, in a way). I have tabbed this from a
poor quality live recording, so this version, hardly precise 
anyway, may differ from the eventual studio release.
 
 

Intro/1st Part Of Verse/Chorus (W/Distortion):
 
x--------0-------------------------x
x--4---4---4-----------2-----------x
x----4-------4---4---2---2-----6b--x
x--------------4-------------6-----x
x--2---------------0-------4-------x
x----------------------------------x
 
 

2nd Part Of Verse (W/Distortion):
 
x-----------------------------------x
x-----------------------------------x
x--4-4-4-4-4-4-4-4\2-2-2-2/6-6-6-6--x
x--4-4-4-4-4-4-4-4\2-2-2-2/6-6-6-6--x
x--2-2-2-2-2-2-2-2\0-0-0-0/4-4-4-4--x
x-----------------------------------x
 
 

Bridge:
 
(Lead Guitar)
x--------------------x
x---------9b---------x
x--8-9-11----11~9~~--x
x--------------------x
x--------------------x
x--------------------x
 
(Rhythm Guitar)
x--------------------x
x--------------------x
x--8/9/11/13b\11\9~--x
x--------------------x
x--6/7/9~/11b\9~\7~--x
x--------------------x
 
 

Chorus (Guitars tacet for first few bars):
 
Same as 2nd part of verse, with this lead riff throughtout:
 
x------------------------------12-------12-----14p12---x
x-----16-------16-----------------12-------12----------x
x--------16-------16----16-----------------------------x
x--------------------16------13------13----------------x
x--14-------14-----------------------------------------x
x------------------------------------------------------x
 
 

Bridge (From Chorus To Verse/Outro) Part 1:
 
x-------------------x
x-------------------x
x--4-4-4-4-4-4\2/4--x
x--4-4-4-4-4-4\2/4--x
x--2-2-2-2-2-2\0/2--x
x-------------------x
 
 
Part 2 (W/Heavy Distortion):
 
x-------------------x
x-------------------x
x--4-4-4-4-4-4/6\4--x
x--4-4-4-4-4-4/6\4--x
x--2-2-2-2-2-2/4\2--x
x-------------------x
 
 

Outro/Solo:
 
Simple variations of verse/chorus riffs at a slower tempo.
 
I'm afraid I'm not exactly sure of the solo, but here's
a vague idea anyway...:
 
x-----------------------------------------x
x--16-17-16h17p16-14-12b------------------x
x-----------------------14b16-16b18-16~~--x
x-----------------------------------------x
x-----------------------------------------x
x-----------------------------------------x Etc, etc.....(Improvise!)
 
 
End On:
 
x-----x
x-----x
x--4--x
x--4--x
x--2--x
x-----x
 
 
This file is all my own work and represents my interpretation of the
song.

Almost there ...

Sign in to get your own page with links to favourite songs and more. You are just one click away...

Login with Facebook Login with Google