Log in

One click and you are in

Login with Facebook Login with Google

Why sign up and log in

Guitar Tabs Explorer
Zwan bass tabs for Declarations

Bass tabs

Tuning: Standard

Bass Intro/Main:
G|-6-6-6-6-7-7-9-9--2-2-2-2-4-4-2-0---------------------------------|
D|-----------------------------------4-4-4-4-2-2-0-0-5-5-4-4-2-2-0-0-| x6
A|-------------------------------------------------------------------|
E|-------------------------------------------------------------------|

G|-----------------------------------------------------------------|
D|-2-2-2-2-4-4-5-5-7-7-7-7-9-9-7-5---------------------------------|
A|-------------------------------------------------5-5-5-5-5-5-5-5-|
E|---------------------------------3-3-3-3-3-3-3-3-----------------|

G|-------------------------------------------------------------------|
D|-2-2-2-2-4-4-5-5-7-7-7-7-9-9-7-5-----------------------------------|
A|--------------------------------------------------/-10-10-10--7--5-|
E|---------------------------------3-3-3-3-3-3-3-3-/-----------------|
Chorus:
G|----------------------------------------------------------|
D|----------------------------------------------------------| x2
A|-10-10-10-10-9-9-7-7---------------------7-7-7-7-7h85-|
E|-------------------------3-3-5-5-7-7-10-10---------------|

G|----------------------------------------------------|
D|----------------------------------------------------|
A|------------------------------0-0-0-0-7-7-7-7-7h85-|
E|-3-3-3-3-3-3-3-3-5-3--2-2-2-2-----------------------|

G|-------------------------------------------------|
D|-------------------------0-0-0-0-0-0-0-0---------|
A|-----------------2-2-2-2-----------------0-0-0-0-|
E|-3-3-3-3-3-3-3-3---------------------------------|

G|--------------------------------------------------|
D|--------------------------------------------------| x3
A|-------------------7-7-7-7-7h85--5-5-5-5-0-0-0-0-|
E|-3-3-5-5-7-7-10-10--------------------------------|

G|---------------------------------|
D|---------------------------------|
A|-------------------7-7-7-7-7h85-|
E|-3-3-5-5-7-7-10-10---------------|

Kiss  Me  Alone (1:31)
G|----------------|
D|-0--------------|
A|-------0--------|
E|--------------3-|

Interlude (Same as Intro)
G|-6-6-6-6-7-7-9-9--2-2-2-2-4-4-2-0---------------------------------|
D|-----------------------------------4-4-4-4-2-2-0-0-5-5-4-4-2-2-0-0-| x5
A|-------------------------------------------------------------------|
E|-------------------------------------------------------------------|

G|-----------------------------------------------------------------|
D|-2-2-2-2-4-4-5-5-7-7-7-7-9-9-7-5---------------------------------|
A|-------------------------------------------------5-5-5-5-5-5-5-5-|
E|---------------------------------3-3-3-3-3-3-3-3-----------------|

G|-------------------------------------------------------------------|
D|-2-2-2-2-4-4-5-5-7-7-7-7-9-9-7-5-----------------------------------|
A|--------------------------------------------------/-10-10-10--7--5-|
E|---------------------------------3-3-3-3-3-3-3-3-/-----------------|

Chorus:
G|----------------------------------------------------------|
D|----------------------------------------------------------| x2
A|-10-10-10-10-9-9-7-7---------------------7-7-7-7-7h85-|
E|-------------------------3-3-5-5-7-7-10-10---------------|

G|----------------------------------------------------|
D|----------------------------------------------------|
A|------------------------------0-0-0-0-7-7-7-7-7h85-|
E|-3-3-3-3-3-3-3-3-5-3--2-2-2-2-----------------------|

G|-------------------------------------------------|
D|-------------------------0-0-0-0-0-0-0-0---------|
A|-----------------2-2-2-2-----------------0-0-0-0-|
E|-3-3-3-3-3-3-3-3---------------------------------|

G|--------------------------------------------------|
D|--------------------------------------------------| x3
A|-------------------7-7-7-7-7h85--5-5-5-5-0-0-0-0-|
E|-3-3-5-5-7-7-10-10--------------------------------|

G|---------------------------------|
D|---------------------------------|
A|-------------------7-7-7-7-7h85-|
E|-3-3-5-5-7-7-10-10---------------|

 Kiss  Me  Alone (3:06)
G|----------------|
D|-0--------------| x4
A|-------0--------|
E|--------------3-|

        Maybe We Were Born To Love
G|----------------|
D|-0--------------| x4
A|-------0--------|
E|--------------3-|

G|-------------------|
D|-------------------|
A|-------------------|
E|-3-3-5-5-7-7-10-10-|


Outro:
G|---------------------------------------|
D|---------------------------------------| x5
A|-5-5-7-7-9-9-12-12-10-10-10-10-7-7-5-5-|
E|---------------------------------------|

G|-------------------------------------------|
D|-------------------------------------------|
A|-------------------------------------------|
E|-10-10-10-10--5-5-5-5--3-3-5-5-7-7-10-10-|

G|---------------------------------------|
D|---------------------------------------|
A|-5-5-7-7-9-9-12-12-10-10-10-10-7-7-5-5-|
E|---------------------------------------|

G|-------------------------------------------|
D|-------------------------------------------|
A|-------------------------------------------|
E|-10-10-10-10--5-5-5-5--3-3-5-5-7-7-10-10-|

G|---------------------------------------|
D|---------------------------------------|
A|-5-5-7-7-9-9-12-12-10-10-10-10-7-7-5-5-|
E|---------------------------------------|

 Kiss  Me  Alone
G|----------------|
D|-0--------------|
A|-------0--------|

Almost there ...

Sign in to get your own page with links to favourite songs and more. You are just one click away...

Login with Facebook Login with Google