Log in

One click and you are in

Login with Facebook Login with Google

Why sign up and log in

Guitar Tabs Explorer
Zolof The Rock And Roll Destroyer tabs for Dont you want me

Don't You Want Me tab - Zolof The Rock And Roll Destroyer

Zolof The Rock And Roll Destroyer tabs for Dont you want me

Guitar tabs

Band - Zolof The Rock & Roll Destroyer
Song - Don't You Want Me (Human League Cover)
Album - Duet All Night Long w/Reel Big Fish

Tabbed By: Tyler Freear (SumFX)
Tuning: Standard (E A D G B E)

Awesome Cover, I Really Love This Song!
Guest Vocals By None Other Than Aaron Barrett of Reel Big Fish!

Key
h=Hammer On
p=Pull Off


Intro/Bridge
Both Guitars
|-----------|---------|-----------|---------|
|-----------|---------|-----------|---------|
|-----------|---------|-----------|---------|
|-----------|---------|-----------|---------|
|-----------|-------3-|-----------|---3-----|
|-5-5-0-3-5-|-5-0-3---|-5-5-0-3-5-|-5---3-5-|

|-----------|---------|-----------|-------------|
|-----------|---------|-----------|-------------|
|-----------|---------|-----------|-------------|
|-----------|---------|-----------|-0h2p0-------|
|-----------|-------3-|-----------|-------3-2-0-|
|-5-5-0-3-5-|-5-0-3---|-5-5-0-3-5-|-------------|


Verse
Guitar 1
|-----------------------------------|
|-----------------------------------|
|-----------------------------------|
|-----------------------------------|
|-3-3-33-3-3-------5-5-55-5-5-------|
|-1-1-11-1-1-------3-3-33-3-3-------|

Guitar 2
|-----------------------------------|
|-----------------------------------|
|-----------------------------------|
|-----------------------------------|
|-----------------------------------|
|-1111111111111111-3333333333333333-|

Pre Chorus
Both Guitars
|---------------------------|
|---------------------------|
|-------0000--------77------|
|-7777--2222--3333--77--55--| x2
|-7777--2222--3333--55--55--|
|-5555--0000--1111------33--|

|--------------------------------------|
|--------------------------------------|
|-22222222-44444444-55555555-99999999--|
|-22222222-44444444-55555555-99999999--|
|-00000000-22222222-33333333-77777777--|
|--------------------------------------|


Chorus
Both Guitars
|-------------------|
|-------------------|
|-------------------|
|-33333333-55555555-|
|-33333333-55555555-|
|-11111111-33333333-|

End On A chord diagramF5F5
Both Guitars
|-----|
|-----|
|-----|
|-3---|
|-3---|
|-1---|

Structure

Intro

Verse

Pre Chorus

Chorus x2

Verse x8

Pre Chorus

Chorus x2

Bridge

Chorus x8
End On A chord diagramF5F5

Easy & Fabulous!

Rate & Comments Would Be Great!

Almost there ...

Sign in to get your own page with links to favourite songs and more. You are just one click away...

Login with Facebook Login with Google