Kaapstad by Karen Zoid

Kaapstad tab by Karen Zoid

Guitar tabs

KAREN ZOID - KAAPSTAD

Intro: (G - F# - B - B) x 2

Verse 1: Chorus (G - F# - B - B) x 4


e|-----------------------------------------------------------------------------|
B|-10^ 12----10----7^8--7--5^7----5----3---------------------------------------|
G|-----------------------------------------------------------------------------|
D|-----------------------------------------------------------------------------|
A|-----------------------------------------------------------------------------|
E|-----------------------------------------------------------------------------|

Verse 2: (G - F# - B - B) x 4

Chorus: (G - F# - B - B) x 4

e|-----------------------------------------------------------------------------|
B|-10^ 12----10----7^8--7--5^7----5----3---------------------------------------|
G|-----------------------------------------------------------------------------|
D|-----------------------------------------------------------------------------|
A|-----------------------------------------------------------------------------|
E|-----------------------------------------------------------------------------|

Bridge: (A - E - C5 - D5)   x2

Intro: (G - F# - B - B) x 2

Verse 3: (G - F# - B - B) x 4

Chorus: (G - F# - B - B) x 4


e|-----------------------------------------------------------------------------|
B|-10^ 12----10----7^8--7--5^7----5----3---------------------------------------|
G|-----------------------------------------------------------------------------|
D|-----------------------------------------------------------------------------|
A|-----------------------------------------------------------------------------|
E|-----------------------------------------------------------------------------|

Intro: (G - F# - B - B) x 2

Verse 4: (G - F# - B - B) x 4

Chorus: (G - F# - B - B) x 4

Bridge: (A - E - C5 - D5)   x2

Riff:
e|-----------------------------------------------------------------------------|
B|-10^ 12----10----7^8--7--5^7----5----3---------------------------------------|
G|-----------------------------------------------------------------------------|
D|-----------------------------------------------------------------------------|
A|-----------------------------------------------------------------------------|
E|-----------------------------------------------------------------------------|

Find guitar tabs and chords

A B C D E F G H I J K L M N O P Q R S T U V W X Y Z #