Log in

One click and you are in

Login with Facebook Login with Google

Why sign up and log in

Guitar Tabs Explorer
Zoé bass tabs for Luna

Bass tabs

  • Difficulty: Beginner
Tuning: Standard (E A D G)


Intro: (0:16-0:30)
G|--------------------|
D|------------7-------|
A|-8----10---------10-| x2
E|--------------------|


Verse 1: (0:32-1:51)
G|--------------------|
D|------------7-------|
A|-8----10---------10-| x4
E|--------------------|

G|----------------------|----------------------------|----------------------|--------------------------|
D|---------------9--10--|---------------------10--9--|-7--7-7-7-7-7--9--10--|---------------------10-9-|
A|-8--8-8-8-8-8---------|-10--10-10-10-10-10---------|----------------------|-10--10-10-10-10-10-------| x6
E|----------------------|----------------------------|----------------------|--------------------------|


Chorus 1: (2:00-2:31)
G|--------------------------|---------------------|
D|--------------------------|---------------------|
A|-8--8-8-8-8-8--8-8-8-8-8--|-8-8-8---8--8-8-8-8--|
E|--------------------------|-------8-------------|

G|---------------------|-----------------|------------------------|
D|---------------------|-----------------|------------------------|
A|-10--10-10-10-10-10--|-10-10-10----10--|-10-10-10----10--10--10-|
E|---------------------|----------10-----|----------10------------|

G|--------------------------|------------------|
D|--------------------------|------------------|
A|-8--8-8-8-8-8--8-8-8---8--|-8-8-8---8--8--8--|
E|---------------------8----|-------8----------|

G|---------------------|-----------------|------------------------|
D|---------------------|-----------------|------------------------|
A|-10--10-10-10-10-10--|-10-10-10----10--|-10-10-10----10--10--10-|
E|---------------------|----------10-----|----------10------------|

G|--------------------------|------------------|
D|--------------------------|------------------|
A|-8--8-8-8-8-8--8-8-8---8--|-8-8-8---8--8--8--|
E|---------------------8----|-------8----------|

G|---------------------|-----------------|-------------------------|
D|---------------------|-----------------|-------------------------|
A|-10--10-10-10-10-10--|-10-10-10----10--|-10-10-10----10--10--12\-|
E|---------------------|----------10-----|----------10-------------|

G|--------------------------|------------------|
D|--------------------------|------------------|
A|-8--8-8-8-8-8--8-8-8---8--|-8-8-8---8--8--8--|
E|---------------------8----|-------8----------|

G|---------------------|-----------------|------------------------|
D|---------------------|-----------------|------------------------|
A|-10--10-10-10-10-10--|-10-10-10-10-10--|-10-10-10-10-10--10--10-|
E|---------------------|-----------------|------------------------|

Post-chorus: (2:32-2:47)
G|---------------------|--------------------------|---------------------|------------------------|
D|--------------9--10--|-------------------10--9--|-7--7-7--7-7--9--10--|-------------------10-9-|
A|-8--8-8--8-8---------|-10--10-10--10-10---------|---------------------|-10--10-10--10-10-------|
E|---------------------|--------------------------|---------------------|------------------------|

G|---------------------|--------------------------|---------------------|-----------------------------|
D|--------------9--10--|-------------------10--9--|-7--7-7--7-7--9--10--|-------------------10-10-9-9-|
A|-8--8-8--8-8---------|-10--10-10--10-10---------|---------------------|-10--10-10--10-10------------|
E|---------------------|--------------------------|---------------------|-----------------------------|


Verse 2: (2:48-3:20)
G|----------------------|----------------------------|----------------------|--------------------------|
D|---------------9--10--|---------------------10--9--|-7--7-7-7-7-7--9--10--|---------------------10-9-|
A|-8--8-8-8-8-8---------|-10--10-10-10-10-10---------|----------------------|-10--10-10-10-10-10-------|
E|----------------------|----------------------------|----------------------|--------------------------|

G|----------------------|----------------------------|----------------------|-------------------------------|
D|---------------9--10--|---------------------10--9--|-7--7-7-7-7-7--9--10--|---------------------10-10-9-9-|
A|-8--8-8-8-8-8---------|-10--10-10-10-10-10---------|----------------------|-10--10-10-10-10-10------------|
E|----------------------|----------------------------|----------------------|-------------------------------|

G|----------------------|----------------------------|----------------------|--------------------------|
D|---------------9--10--|---------------------10--9--|-7--7-7-7-7-7--9--10--|---------------------10-9-|
A|-8--8-8-8-8-8---------|-10--10-10-10-10-10---------|----------------------|-10--10-10-10-10-10-------| x2
E|----------------------|----------------------------|----------------------|--------------------------|


Chorus 2: (3:22-4:10)
G|--------------------------|------------------|
D|--------------------------|------------------|
A|-8--8-8-8-8-8--8-8-8---8--|-8-8-8---8--8--8--|
E|---------------------8----|-------8----------|

G|---------------------|-----------------|------------------------|
D|---------------------|-----------------|------------------------|
A|-10--10-10-10-10-10--|-10-10-10----10--|-10-10-10----10--10--10-|
E|---------------------|----------10-----|----------10------------|

G|--------------------------|------------------|
D|--------------------------|------------------|
A|-8--8-8-8-8-8--8-8-8---8--|-8-8-8---8--8--8--|
E|---------------------8----|-------8----------|

G|---------------------|-----------------|------------------------|
D|---------------------|-----------------|------------------------|
A|-10--10-10-10-10-10--|-10-10-10----10--|-10-10-10----10--10--10-|
E|---------------------|----------10-----|----------10------------|

G|--------------------------|------------------|
D|--------------------------|------------------|
A|-8--8-8-8-8-8--8-8-8---8--|-8-8-8---8--8--8--|
E|---------------------8----|-------8----------|

G|---------------------|-----------------|------------------------|
D|---------------------|-----------------|------------------------|
A|-10--10-10-10-10-10--|-10-10-10----10--|-10-10-10----10--10--10-|
E|---------------------|----------10-----|----------10------------|

G|--------------------------|------------------|
D|--------------------------|------------------|
A|-8--8-8-8-8-8--8-8-8---8--|-8-8-8---8--8--8--|
E|---------------------8----|-------8----------|

G|---------------------|-----------------|------------------------|
D|---------------------|-----------------|------------------------|
A|-10--10-10-10-10-10--|-10-10-10----10--|-10-10-10----10--10--10-|
E|---------------------|----------10-----|----------10------------|

G|--------------------------|------------------|
D|--------------------------|------------------|
A|-8--8-8-8-8-8--8-8-8---8--|-8-8-8---8--8--8--|
E|---------------------8----|-------8----------|

G|---------------------|-----------------|------------------------|
D|---------------------|-----------------|------------------------|
A|-10--10-10-10-10-10--|-10-10-10----10--|-10-10-10----10--10--10-|
E|---------------------|----------10-----|----------10------------|

G|--------------------------|------------------|
D|--------------------------|------------------|
A|-8--8-8-8-8-8--8-8-8---8--|-8-8-8---8--8--8--|
E|---------------------8----|-------8----------|

G|---------------------|-----------------|---------------------------|
D|---------------------|-----------------|---------------------------|
A|-10--10-10-10-10-10--|-10-10-10----10--|-10-10-10----10--10--10--8-|
E|---------------------|----------10-----|----------10---------------|

************************************

| \  Slide down

************************************

Almost there ...

Sign in to get your own page with links to favourite songs and more. You are just one click away...

Login with Facebook Login with Google