Log in

One click and you are in

Login with Facebook Login with Google

Why sign up and log in

Guitar Tabs Explorer
Hans Zimmer tabs for There he is

Intro

Well hi, this is the tab for the song There he is by Hans Zimmer,
created for The Amazing Spider Man 2.
i hope it's ok but, i don't know, nevermind, good look, bye bye
1° intro:
|---------------------------------|    |
|--0-----1p0-----3p1p0-----1p0----|    |
|----0-------0---------0-------0--|    |
|2-----2-------2---------2-------4|    |
|---------------------------------|    |
|---------------------------------|    |
                                       |
                                       |
2° intro:                              |
|--------------2p0--------|            |
|--0-----1p0-------1p0----|            |
|----0-------0---------0--|            |
|2-----2-----------------4|            |
|-------------------------|            |
|-------------------------|            |x8 :3
---------------------------------------

Here is the electric part or something like that.

Experimental: After intro, this come but i have learned this right now, so if you want do it...
Good luck.

|---------------------------------------0------2------3--|
|------------------0------1------3-----------------------|
|----0------2--------------------------------------------|
|--2---2--2---2--2---2--2---2--2---2--2---2--2---2--2---2|
|--------------------------------------------------------|
|0~~~~~~~~~~~~~~~~~~~~~~~~~~~~~~~0~~~~~~~~~~~~~~~~~~~~~~~|

|----5------7------8------7------5--|
|-----------------------------------|
|-----------------------------------|
|-----------------------------------|
|--7---7--7---7--7---7--7---7--7---7|
|0~~~~~~~~~~~-----------------------|

|-12---12---12------12----12-----12---12--|
|-----------------------------------------|
|----9----9----9-9------9----9-9----9----9|
|-----------------------------------------|
|-2~~~~~~~~~~~~~~~~~~~~~~~~~~~~~~~~~~~~~~~|
|-0~~~~~~~~~~~~~~~~~~~~~~~~~~~~~~~~~~~~~~~|


I hope it's ok *again* Leave comments whit what it's wrong to fix it.
Bye-bye

Almost there ...

Sign in to get your own page with links to favourite songs and more. You are just one click away...

Login with Facebook Login with Google