Search tabs and chords

Search for song, artist or band

Log in

One click and you are in

Login with Facebook Login with Google

Why sign up and log in

Guitar Tabs Explorer
Ziggy Alberts guitar tabs for Laps around the sun acoustic

Guitar tabs

  • Capo on 5th
Difficulty: Intermediate


Tuning: E-A-C#-E-B-e
Intro: & Verse

 e|------------------|----------------------|------------------|-----------------|
 B|------------------|----------------------|------------------|---------------0-|
 E|------0----0------|------0---------------|------0----0------|-----0h2-4-------| x2
C#|--7------------7--|--5--------5h7 pause--|--3------------3--|--3-----3--3-----|
 A|7---7----7---7----|6---6----6------------|4---4----4---4----|0---0---------0--|
 E|------------------|----------------------|------------------|-----------------|

 e|------------------|----------------------|------------------|-----------------|
 B|------------------|----------------------|------------------|---------------0-|
 E|------0----0------|------0--------0------|------0----0------|-----0h2-4-------| x2
C#|--7------------7--|--5--------5h7--------|--3------------3--|--3-----3--3-----|
 A|7---7----7---7----|6---6----6------------|4---4----4---4----|0---0---------0--|
 E|------------------|----------------------|------------------|-----------------|

  e|------------------------|
  B|------------------------|
  E|0----0----0-------------|
 C#|0----0----0---let ring--| oh how much is left to learn..
  A|11---9----7-------------|
  E|9----7----5-------------|



Chorus: *strum the lower notes with your thumb and pick the higher notes

 e|---------------|---------------|---------------|---------------|
 B|--0---0--------|--0---0--------|--0---0--------|--0---0--------|
 E|--0------------|--0------------|--0------------|--0------------|
C#|3--------(x2)--|0--------(x2)--|0--------(x2)--|0--------(x2)--| x4
 A|2--------------|7--------------|11-------------|9--------------|
 E|0---0----------|5---0----------|9---0----------|7---0----------|

 e|---------------|---------------|
 B|--0---0--------|--0---0--------|
 E|--0------------|--0------------| oh how much is left...
C#|0--------------|0--------------|
 A|11-------------|9--------------|
 E|9---0----------|7---0----------|


Post Chorus:

 e|------------------|----------------------|------------------|-----------------|
 B|------------------|--------------0-------|---------------0--|---------------0-|
 E|------0-----------|------0---------------|------0-----------|-----0h2-4-------|
C#|--7--------7---0--|--5--------5h7--------|--3--------3------|--3-----3--3-----|
 A|7---7----7---7----|6---6----6------------|4---4----4---4----|0---0---------0--|
 E|------------------|----------------------|------------------|-----------------|

Then back to verse....


Outro:
 e|------------------|----------------------|------------------|-----------------|
 B|------------------|--------------0-------|---------------0--|---------------0-|
 E|------0-----------|------0---------------|------0-----------|-----0h2-4-------| x2
C#|--7--------7---0--|--5--------5h7--------|--3--------3------|--3-----3--3-----|
 A|7---7----7---7----|6---6----6------------|4---4----4---4----|0---0---------0--|
 E|------------------|----------------------|------------------|-----------------|

 e|0-----------------|
 B|0-----------------|
 E|0-----------------|
C#|3-----------------|
 A|2-----------------|
 E|0-----------------|

Enjoy! please rate and leave a comment

https://www.youtube.com/watch?v=cSaqVHWg9Uc

************************************


| h   Hammer-on


************************************

Other versions of Laps Around The Sun Acoustic

Laps around the sunChords

Almost there ...

Sign in to get your own page with links to favourite songs and more. You are just one click away...

Login with Facebook Login with Google