Log in

One click and you are in

Login with Facebook Login with Google

Why sign up and log in

Guitar Tabs Explorer
Zero 7 bass tabs for Destiny

Bass tabs

Tuning: Drop D (D A D G)


Intro:

G|-----------|-----------|x2
D|-----------|-----------|
A|-3---------|-----------|
D|-----------|-----------|
G|-----------|
D|-14\0------|
A|-----------|
D|-----------|

G|-----------|-----------|---------------|-----------------|-------------|-------------|-----------|
D|-----------|-1---------|---------------|--1-----1-1---0--|-------------|----------1--|----------0|
A|--3--------|-----------|-3--0-3-3---0--|-----------------|-------------|--------2----|-----------|
D|-----------|-----------|---------------|-----------------|-6---0-5-5---|1------------|-----------|


Verse 1:

G|---------------|----------------|x3 |---------------------|
D|---------------|-1---0h1-0h1--0-|  |---------------------|
A|-3---0-3-3--0--|----------------|  |---------------------|
D|---------------|----------------|  |--6----3-6-5----5-1--|

G|---------------|----------------|x3 |---------------------|
D|---------------|-1---0-1-1----0-|  |---------------------|
A|-3---0-3-3--0--|----------------|  |---------------------|
D|---------------|----------------|  |--6----3-6-5----5-1--|


Chorus:

G|-----------|------------|------------------|-----------|------33----|------------------|
D|-1-------1-|0---------0-|------------------|-1-------1-|0-------3-0-|------------------|
A|--------2--|---------2--|-4------2-4-3---4-|--------2--|------------|-4------2-3-3---4-|
D|-----------|------------|------------------|-----------|------------|------------------|

G|-----------|------------|------------------|-----------|------------|------------------|
D|-1-------1-|0---------0-|------------------|-1-------1-|0---------0-|------------------|
A|--------2--|---------2--|-4------2-3-3---4-|--------2--|--------2---|-4----------------|
D|-----------|------------|------------------|-----------|------------|------------------|

G|---------------|----------------|x2
D|---------------|-1---0-1-1----0-|
A|-3---0-3-3--0--|----------------|
D|---------------|----------------|


Verse 2:

G|---------------|----------------|x3 |---------------------|
D|---------------|-1---0-1-1----0-|  |---------------------|
A|-3---0-3-3--0--|----------------|  |---------------------|
D|---------------|----------------|  |--6----3-6-5----5-1--|


Chorus 2:

G|-----------|------------|------------------|-----------|------------|------------------|
D|-1-------1-|0---------0-|------------------|-1-------1-|0---------0-|------------------|
A|--------2--|---------2--|-4------2-4-3---4-|--------2--|--------2---|-4------2-3-3---4-|
D|-----------|------------|------------------|-----------|------------|------------------|

G|-----------|------------|------------------|-----------|------------|------------------|x3
D|-1-------1-|0---------0-|------------------|-1-------1-|0---------0-|------------------|
A|--------2--|---------2--|-4------2-4-3---4-|--------2--|--------2---|-4----------------|
D|-----------|------------|------------------|-----------|------------|------------------|

8 bars of rest:

G|-----------|x8
D|-----------|
A|-----------|
D|-----------|


Outro:

G|-------0-2---0-4-----|------------------|x9
D|---------------------|------------------|
A|-3-------------------|------------------|
D|---------------------|-3--------5-------|


************************************

| h  Hammer-on
| \  Slide down

************************************

Almost there ...

Sign in to get your own page with links to favourite songs and more. You are just one click away...

Login with Facebook Login with Google